  0
SECTION
  2
HEADER
  9
$ACADVER
  1
AC1015
  9
$ACADMAINTVER
 70
     6
  9
$DWGCODEPAGE
  3
ANSI_1254
  9
$INSBASE
 10
0.0
 20
0.0
 30
0.0
  9
$EXTMIN
 10
0.0
 20
0.0
 30
0.0
  9
$EXTMAX
 10
279.4
 20
215.9
 30
0.0
  9
$LIMMIN
 10
0.0
 20
0.0
  9
$LIMMAX
 10
279.4
 20
215.9
  9
$ORTHOMODE
 70
     0
  9
$REGENMODE
 70
     1
  9
$FILLMODE
 70
     1
  9
$QTEXTMODE
 70
     0
  9
$MIRRTEXT
 70
     1
  9
$LTSCALE
 40
1.0
  9
$ATTMODE
 70
     1
  9
$TEXTSIZE
 40
3.5
  9
$TRACEWID
 40
1.0
  9
$TEXTSTYLE
  7
Standard
  9
$CLAYER
  8
0
  9
$CELTYPE
  6
ByLayer
  9
$CECOLOR
 62
   256
  9
$CELTSCALE
 40
1.0
  9
$DISPSILH
 70
     0
  9
$DIMSCALE
 40
1.0
  9
$DIMASZ
 40
3.5
  9
$DIMEXO
 40
1.0
  9
$DIMDLI
 40
3.75
  9
$DIMRND
 40
0.0
  9
$DIMDLE
 40
0.0
  9
$DIMEXE
 40
1.0
  9
$DIMTP
 40
0.0
  9
$DIMTM
 40
0.0
  9
$DIMTXT
 40
3.5
  9
$DIMCEN
 40
2.5
  9
$DIMTSZ
 40
0.0
  9
$DIMTOL
 70
     0
  9
$DIMLIM
 70
     0
  9
$DIMTIH
 70
     1
  9
$DIMTOH
 70
     1
  9
$DIMSE1
 70
     0
  9
$DIMSE2
 70
     0
  9
$DIMTAD
 70
     1
  9
$DIMZIN
 70
     0
  9
$DIMBLK
  1

  9
$DIMASO
 70
     1
  9
$DIMSHO
 70
     1
  9
$DIMPOST
  1

  9
$DIMAPOST
  1

  9
$DIMALT
 70
     0
  9
$DIMALTD
 70
     3
  9
$DIMALTF
 40
0.0393700787
  9
$DIMLFAC
 40
1.0
  9
$DIMTOFL
 70
     1
  9
$DIMTVP
 40
0.0
  9
$DIMTIX
 70
     0
  9
$DIMSOXD
 70
     0
  9
$DIMSAH
 70
     0
  9
$DIMBLK1
  1

  9
$DIMBLK2
  1

  9
$DIMSTYLE
  2
ISO-25
  9
$DIMCLRD
 70
     0
  9
$DIMCLRE
 70
     0
  9
$DIMCLRT
 70
     0
  9
$DIMTFAC
 40
1.0
  9
$DIMGAP
 40
1.524
  9
$DIMJUST
 70
     0
  9
$DIMSD1
 70
     0
  9
$DIMSD2
 70
     0
  9
$DIMTOLJ
 70
     0
  9
$DIMTZIN
 70
     0
  9
$DIMALTZ
 70
     0
  9
$DIMALTTZ
 70
     0
  9
$DIMUPT
 70
     0
  9
$DIMDEC
 70
     2
  9
$DIMTDEC
 70
     2
  9
$DIMALTU
 70
     2
  9
$DIMALTTD
 70
     3
  9
$DIMTXSTY
  7
Standard
  9
$DIMAUNIT
 70
     0
  9
$DIMADEC
 70
     2
  9
$DIMALTRND
 40
0.0
  9
$DIMAZIN
 70
     0
  9
$DIMDSEP
 70
    44
  9
$DIMATFIT
 70
     3
  9
$DIMFRAC
 70
     0
  9
$DIMLDRBLK
  1

  9
$DIMLUNIT
 70
     2
  9
$DIMLWD
 70
    -2
  9
$DIMLWE
 70
    -2
  9
$DIMTMOVE
 70
     0
  9
$LUNITS
 70
     2
  9
$LUPREC
 70
     2
  9
$SKETCHINC
 40
1.0
  9
$FILLETRAD
 40
10.0
  9
$AUNITS
 70
     0
  9
$AUPREC
 70
     2
  9
$MENU
  1
.
  9
$ELEVATION
 40
0.0
  9
$PELEVATION
 40
0.0
  9
$THICKNESS
 40
0.0
  9
$LIMCHECK
 70
     0
  9
$CHAMFERA
 40
0.0
  9
$CHAMFERB
 40
0.0
  9
$CHAMFERC
 40
0.0
  9
$CHAMFERD
 40
0.0
  9
$SKPOLY
 70
     0
  9
$TDCREATE
 40
2458985.721424537
  9
$TDUCREATE
 40
2458985.596424537
  9
$TDUPDATE
 40
2458985.721424815
  9
$TDUUPDATE
 40
2458985.596424815
  9
$TDINDWG
 40
0.0000000116
  9
$TDUSRTIMER
 40
0.0000000116
  9
$USRTIMER
 70
     1
  9
$ANGBASE
 50
0.0
  9
$ANGDIR
 70
     0
  9
$PDMODE
 70
     0
  9
$PDSIZE
 40
-1.0
  9
$PLINEWID
 40
0.0
  9
$SPLFRAME
 70
     0
  9
$SPLINETYPE
 70
     6
  9
$SPLINESEGS
 70
     8
  9
$HANDSEED
  5
E1
  9
$SURFTAB1
 70
     6
  9
$SURFTAB2
 70
     6
  9
$SURFTYPE
 70
     6
  9
$SURFU
 70
     6
  9
$SURFV
 70
     6
  9
$UCSBASE
  2

  9
$UCSNAME
  2

  9
$UCSORG
 10
0.0
 20
0.0
 30
0.0
  9
$UCSXDIR
 10
1.0
 20
0.0
 30
0.0
  9
$UCSYDIR
 10
0.0
 20
1.0
 30
0.0
  9
$UCSORTHOREF
  2

  9
$UCSORTHOVIEW
 70
     0
  9
$UCSORGTOP
 10
0.0
 20
0.0
 30
0.0
  9
$UCSORGBOTTOM
 10
0.0
 20
0.0
 30
0.0
  9
$UCSORGLEFT
 10
0.0
 20
0.0
 30
0.0
  9
$UCSORGRIGHT
 10
0.0
 20
0.0
 30
0.0
  9
$UCSORGFRONT
 10
0.0
 20
0.0
 30
0.0
  9
$UCSORGBACK
 10
0.0
 20
0.0
 30
0.0
  9
$PUCSBASE
  2

  9
$PUCSNAME
  2

  9
$PUCSORG
 10
0.0
 20
0.0
 30
0.0
  9
$PUCSXDIR
 10
1.0
 20
0.0
 30
0.0
  9
$PUCSYDIR
 10
0.0
 20
1.0
 30
0.0
  9
$PUCSORTHOREF
  2

  9
$PUCSORTHOVIEW
 70
     0
  9
$PUCSORGTOP
 10
0.0
 20
0.0
 30
0.0
  9
$PUCSORGBOTTOM
 10
0.0
 20
0.0
 30
0.0
  9
$PUCSORGLEFT
 10
0.0
 20
0.0
 30
0.0
  9
$PUCSORGRIGHT
 10
0.0
 20
0.0
 30
0.0
  9
$PUCSORGFRONT
 10
0.0
 20
0.0
 30
0.0
  9
$PUCSORGBACK
 10
0.0
 20
0.0
 30
0.0
  9
$USERI1
 70
     0
  9
$USERI2
 70
     0
  9
$USERI3
 70
     0
  9
$USERI4
 70
     0
  9
$USERI5
 70
     0
  9
$USERR1
 40
0.0
  9
$USERR2
 40
0.0
  9
$USERR3
 40
0.0
  9
$USERR4
 40
0.0
  9
$USERR5
 40
0.0
  9
$WORLDVIEW
 70
     1
  9
$SHADEDGE
 70
     3
  9
$SHADEDIF
 70
    70
  9
$TILEMODE
 70
     1
  9
$MAXACTVP
 70
    64
  9
$PINSBASE
 10
0.0
 20
0.0
 30
0.0
  9
$PLIMCHECK
 70
     0
  9
$PEXTMIN
 10
1.0000000000E+20
 20
1.0000000000E+20
 30
1.0000000000E+20
  9
$PEXTMAX
 10
-1.0000000000E+20
 20
-1.0000000000E+20
 30
-1.0000000000E+20
  9
$PLIMMIN
 10
0.0
 20
0.0
  9
$PLIMMAX
 10
420.0
 20
297.0
  9
$UNITMODE
 70
     0
  9
$VISRETAIN
 70
     1
  9
$PLINEGEN
 70
     0
  9
$PSLTSCALE
 70
     1
  9
$TREEDEPTH
 70
  3020
  9
$CMLSTYLE
  2
Standard
  9
$CMLJUST
 70
     0
  9
$CMLSCALE
 40
20.0
  9
$PROXYGRAPHICS
 70
     1
  9
$MEASUREMENT
 70
     1
  9
$CELWEIGHT
370
    -1
  9
$ENDCAPS
280
     0
  9
$JOINSTYLE
280
     0
  9
$LWDISPLAY
290
     1
  9
$INSUNITS
 70
     4
  9
$HYPERLINKBASE
  1

  9
$STYLESHEET
  1

  9
$XEDIT
290
     1
  9
$CEPSNTYPE
380
     0
  9
$PSTYLEMODE
290
     1
  9
$FINGERPRINTGUID
  2
{8193b700-bb11-45dc-961f-2662a4bc6c1c}
  9
$VERSIONGUID
  2
{FAEB1C32-E019-11D5-929B-00C0DF256EC4}
  9
$EXTNAMES
290
     1
  9
$PSVPSCALE
 40
0.0
  9
$OLESTARTUP
290
     0
  0
ENDSEC
  0
SECTION
  2
CLASSES
  0
CLASS
  1
ACDBDICTIONARYWDFLT
  2
AcDbDictionaryWithDefault
  3
ObjectDBX Classes
 90
        0
280
     0
281
     0
  0
CLASS
  1
VISUALSTYLE
  2
AcDbVisualStyle
  3
ObjectDBX Classes
 90
     4095
280
     0
281
     0
  0
CLASS
  1
MATERIAL
  2
AcDbMaterial
  3
ObjectDBX Classes
 90
     1153
280
     0
281
     0
  0
CLASS
  1
SCALE
  2
AcDbScale
  3
ObjectDBX Classes
 90
     1153
280
     0
281
     0
  0
CLASS
  1
TABLESTYLE
  2
AcDbTableStyle
  3
ObjectDBX Classes
 90
     4095
280
     0
281
     0
  0
CLASS
  1
MLEADERSTYLE
  2
AcDbMLeaderStyle
  3
ACDB_MLEADERSTYLE_CLASS
 90
     4095
280
     0
281
     0
  0
CLASS
  1
SUN
  2
AcDbSun
  3
SCENEOE
 90
     1153
280
     0
281
     0
  0
CLASS
  1
ACDBPLACEHOLDER
  2
AcDbPlaceHolder
  3
ObjectDBX Classes
 90
        0
280
     0
281
     0
  0
CLASS
  1
LAYOUT
  2
AcDbLayout
  3
ObjectDBX Classes
 90
        0
280
     0
281
     0
  0
ENDSEC
  0
SECTION
  2
TABLES
  0
TABLE
  2
VPORT
  5
8
330
0
100
AcDbSymbolTable
 70
     1
  0
VPORT
  5
29
330
8
100
AcDbSymbolTableRecord
100
AcDbViewportTableRecord
  2
*Active
 70
     0
 10
0.0
 20
0.0
 11
1.0
 21
1.0
 12
139.7
 22
107.95
 13
0.0
 23
0.0
 14
10.0
 24
10.0
 15
10.0
 25
10.0
 16
0.0
 26
0.0
 36
1.0
 17
0.0
 27
0.0
 37
0.0
 40
215.9
 41
1.2941176471
 42
50.0
 43
0.0
 44
0.0
 50
0.0
 51
0.0
 71
     0
 72
  2000
 73
     1
 74
     3
 75
     0
 76
     0
 77
     0
 78
     0
281
     0
 65
     1
110
0.0
120
0.0
130
0.0
111
1.0
121
0.0
131
0.0
112
0.0
122
1.0
132
0.0
 79
     0
146
0.0
  0
ENDTAB
  0
TABLE
  2
LTYPE
  5
5
330
0
100
AcDbSymbolTable
 70
     6
  0
LTYPE
  5
14
330
5
100
AcDbSymbolTableRecord
100
AcDbLinetypeTableRecord
  2
ByBlock
 70
     0
  3

 72
    65
 73
     0
 40
0.0
  0
LTYPE
  5
15
330
5
100
AcDbSymbolTableRecord
100
AcDbLinetypeTableRecord
  2
ByLayer
 70
     0
  3

 72
    65
 73
     0
 40
0.0
  0
LTYPE
  5
16
330
5
100
AcDbSymbolTableRecord
100
AcDbLinetypeTableRecord
  2
Continuous
 70
     0
  3
Solid line
 72
    65
 73
     0
 40
0.0
  0
LTYPE
  5
6E
330
5
100
AcDbSymbolTableRecord
100
AcDbLinetypeTableRecord
  2
HIDDEN
 70
     0
  3
Hidden __ __ __ __ __ __ __ __ __ __ __ __ __ __
 72
    65
 73
     2
 40
1.905
 49
1.27
 74
     0
 49
-0.635
 74
     0
  0
LTYPE
  5
6F
330
5
100
AcDbSymbolTableRecord
100
AcDbLinetypeTableRecord
  2
PHANTOM
 70
     0
  3
Phantom ______  __  __  ______  __  __  ______
 72
    65
 73
     6
 40
12.7
 49
6.35
 74
     0
 49
-1.27
 74
     0
 49
1.27
 74
     0
 49
-1.27
 74
     0
 49
1.27
 74
     0
 49
-1.27
 74
     0
  0
LTYPE
  5
70
330
5
100
AcDbSymbolTableRecord
100
AcDbLinetypeTableRecord
  2
CENTER
 70
     0
  3
Center ____ _ ____ _ ____ _ ____ _ ____ _ ____
 72
    65
 73
     4
 40
10.16
 49
6.35
 74
     0
 49
-1.27
 74
     0
 49
1.27
 74
     0
 49
-1.27
 74
     0
  0
LTYPE
  5
71
330
5
100
AcDbSymbolTableRecord
100
AcDbLinetypeTableRecord
  2
CENTERX2
 70
     0
  3
Center (2x) ________  __  ________  __  _____
 72
    65
 73
     4
 40
20.32
 49
12.7
 74
     0
 49
-2.54
 74
     0
 49
2.54
 74
     0
 49
-2.54
 74
     0
  0
LTYPE
  5
72
330
5
100
AcDbSymbolTableRecord
100
AcDbLinetypeTableRecord
  2
DOT2
 70
     0
  3
Dot (.5x) ........................................
 72
    65
 73
     2
 40
0.635
 49
0.0
 74
     0
 49
-0.635
 74
     0
  0
ENDTAB
  0
TABLE
  2
LAYER
  5
2
330
0
100
AcDbSymbolTable
 70
    17
  0
LAYER
  5
10
330
2
100
AcDbSymbolTableRecord
100
AcDbLayerTableRecord
  2
0
 70
     0
 62
     7
  6
Continuous
370
    -3
390
F
  0
LAYER
  5
73
330
2
100
AcDbSymbolTableRecord
100
AcDbLayerTableRecord
  2
FORMAT
 70
     0
 62
     7
  6
Continuous
370
    -3
390
F
  0
LAYER
  5
74
330
2
100
AcDbSymbolTableRecord
100
AcDbLayerTableRecord
  2
YARDIMCI_GEOMETRI
 70
     0
 62
    -6
  6
Continuous
290
     0
370
    -3
390
F
  0
LAYER
  5
75
330
2
100
AcDbSymbolTableRecord
100
AcDbLayerTableRecord
  2
SAYFA_CERCEVESI
 70
     0
 62
     7
  6
Continuous
370
    25
390
F
  0
LAYER
  5
76
330
2
100
AcDbSymbolTableRecord
100
AcDbLayerTableRecord
  2
ANTET
 70
     0
 62
     7
  6
Continuous
370
    -3
390
F
  0
LAYER
  5
77
330
2
100
AcDbSymbolTableRecord
100
AcDbLayerTableRecord
  2
OLCU
 70
     0
 62
   150
  6
Continuous
370
    -3
390
F
  0
LAYER
  5
78
330
2
100
AcDbSymbolTableRecord
100
AcDbLayerTableRecord
  2
METIN
 70
     0
 62
    96
  6
Continuous
370
    -3
390
F
  0
LAYER
  5
79
330
2
100
AcDbSymbolTableRecord
100
AcDbLayerTableRecord
  2
BALON
 70
     0
 62
     5
  6
Continuous
370
    -3
390
F
  0
LAYER
  5
7A
330
2
100
AcDbSymbolTableRecord
100
AcDbLayerTableRecord
  2
VURGU
 70
     0
 62
     7
  6
Continuous
370
    -3
390
F
  0
LAYER
  5
7B
330
2
100
AcDbSymbolTableRecord
100
AcDbLayerTableRecord
  2
SILIK
 70
     0
 62
     7
  6
Continuous
370
    -3
390
F
  0
LAYER
  5
7C
330
2
100
AcDbSymbolTableRecord
100
AcDbLayerTableRecord
  2
MODEL
 70
     0
 62
     7
  6
Continuous
370
    -3
390
F
  0
LAYER
  5
7D
330
2
100
AcDbSymbolTableRecord
100
AcDbLayerTableRecord
  2
DETAYLANDıRMA
 70
     0
 62
   190
  6
Continuous
370
    -3
390
F
  0
LAYER
  5
7E
330
2
100
AcDbSymbolTableRecord
100
AcDbLayerTableRecord
  2
TOLERANS
 70
     0
 62
   230
  6
Continuous
370
    -3
390
F
  0
LAYER
  5
7F
330
2
100
AcDbSymbolTableRecord
100
AcDbLayerTableRecord
  2
MERKEZ_CIZGILERI
 70
     0
 62
    30
  6
Continuous
370
    -3
390
F
  0
LAYER
  5
80
330
2
100
AcDbSymbolTableRecord
100
AcDbLayerTableRecord
  2
KESIT-DETAY_CIZGILERI
 70
     0
 62
     7
  6
Continuous
370
    -3
390
F
  0
LAYER
  5
81
330
2
100
AcDbSymbolTableRecord
100
AcDbLayerTableRecord
  2
\U+041E\U+0421\U+0415\U+0412\U+042B\U+0415
 70
     0
 62
     7
  6
Continuous
370
    -3
390
F
  0
LAYER
  5
82
330
2
100
AcDbSymbolTableRecord
100
AcDbLayerTableRecord
  2
\U+0412\U+041E\U+0414\U+042F\U+041D\U+042B\U+0415_\U+0417\U+041D\U+0410\U+041A\U+0418
 70
     0
 62
    11
  6
Continuous
370
    -3
390
F
  0
ENDTAB
  0
TABLE
  2
STYLE
  5
3
330
0
100
AcDbSymbolTable
 70
     1
  0
STYLE
  5
11
330
3
100
AcDbSymbolTableRecord
100
AcDbTextStyleTableRecord
  2
Standard
 70
     0
 40
0.0
 41
1.0
 50
0.0
 71
     0
 42
3.5
  3
txt
  4

  0
ENDTAB
  0
TABLE
  2
VIEW
  5
6
330
0
100
AcDbSymbolTable
 70
     0
  0
ENDTAB
  0
TABLE
  2
UCS
  5
7
330
0
100
AcDbSymbolTable
 70
     0
  0
ENDTAB
  0
TABLE
  2
APPID
  5
9
330
0
100
AcDbSymbolTable
 70
     1
  0
APPID
  5
12
330
9
100
AcDbSymbolTableRecord
100
AcDbRegAppTableRecord
  2
ACAD
 70
     0
  0
ENDTAB
  0
TABLE
  2
DIMSTYLE
  5
A
330
0
100
AcDbSymbolTable
 70
     1
100
AcDbDimStyleTable
  0
DIMSTYLE
105
27
330
A
100
AcDbSymbolTableRecord
100
AcDbDimStyleTableRecord
  2
ISO-25
 70
     0
 41
2.5
 42
0.625
 43
3.75
 44
1.25
 73
     0
 74
     0
 77
     1
 78
     8
140
2.5
141
2.5
143
0.0393700787
147
0.625
171
     3
172
     1
178
     0
271
     2
272
     2
274
     3
278
    44
283
     0
284
     8
340
11
  0
ENDTAB
  0
TABLE
  2
BLOCK_RECORD
  5
1
330
0
100
AcDbSymbolTable
 70
     3
  0
BLOCK_RECORD
  5
1F
330
1
100
AcDbSymbolTableRecord
100
AcDbBlockTableRecord
  2
*Model_Space
340
22
  0
BLOCK_RECORD
  5
1B
330
1
100
AcDbSymbolTableRecord
100
AcDbBlockTableRecord
  2
*Paper_Space
340
1E
  0
BLOCK_RECORD
  5
23
330
1
100
AcDbSymbolTableRecord
100
AcDbBlockTableRecord
  2
*Paper_Space0
340
26
  0
BLOCK_RECORD
  5
A7
330
1
100
AcDbSymbolTableRecord
100
AcDbBlockTableRecord
  2
SW_CENTERMARKSYMBOL_0
340
0
102
{BLKREFS
331
B2
102
}
  0
BLOCK_RECORD
  5
C7
330
1
100
AcDbSymbolTableRecord
100
AcDbBlockTableRecord
  2
SW_CENTERMARKSYMBOL_1
340
0
102
{BLKREFS
331
D2
102
}
  0
ENDTAB
  0
ENDSEC
  0
SECTION
  2
BLOCKS
  0
BLOCK
  5
20
330
1F
100
AcDbEntity
  8
0
100
AcDbBlockBegin
  2
*Model_Space
 70
     0
 10
0.0
 20
0.0
 30
0.0
  3
*Model_Space
  1

  0
ENDBLK
  5
21
330
1F
100
AcDbEntity
  8
0
100
AcDbBlockEnd
  0
BLOCK
  5
1C
330
1B
100
AcDbEntity
 67
     1
  8
0
100
AcDbBlockBegin
  2
*Paper_Space
 70
     0
 10
0.0
 20
0.0
 30
0.0
  3
*Paper_Space
  1

  0
ENDBLK
  5
1D
330
1B
100
AcDbEntity
 67
     1
  8
0
100
AcDbBlockEnd
  0
BLOCK
  5
24
330
23
100
AcDbEntity
  8
0
100
AcDbBlockBegin
  2
*Paper_Space0
 70
     0
 10
0.0
 20
0.0
 30
0.0
  3
*Paper_Space0
  1

  0
ENDBLK
  5
25
330
23
100
AcDbEntity
  8
0
100
AcDbBlockEnd
  0
BLOCK
  5
A8
330
A7
100
AcDbEntity
  8
0
100
AcDbBlockBegin
  2
SW_CENTERMARKSYMBOL_0
 70
     0
 10
0.0
 20
0.0
 30
0.0
  3
SW_CENTERMARKSYMBOL_0
  1

  0
LINE
  5
AA
330
A7
100
AcDbEntity
  8
FORMAT
 62
     0
100
AcDbLine
 10
0.0
 20
0.0
 30
0.0
 11
0.0
 21
2.5
 31
0.0
  0
LINE
  5
AB
330
A7
100
AcDbEntity
  8
FORMAT
 62
     0
100
AcDbLine
 10
0.0
 20
0.0
 30
0.0
 11
-2.5
 21
0.0
 31
0.0
  0
LINE
  5
AC
330
A7
100
AcDbEntity
  8
FORMAT
 62
     0
100
AcDbLine
 10
0.0
 20
0.0
 30
0.0
 11
0.0
 21
-2.5
 31
0.0
  0
LINE
  5
AD
330
A7
100
AcDbEntity
  8
FORMAT
 62
     0
100
AcDbLine
 10
0.0
 20
0.0
 30
0.0
 11
2.5
 21
0.0
 31
0.0
  0
LINE
  5
AE
330
A7
100
AcDbEntity
  8
FORMAT
 62
     0
100
AcDbLine
 10
0.0
 20
5.0
 30
0.0
 11
0.0
 21
72.5
 31
0.0
  0
LINE
  5
AF
330
A7
100
AcDbEntity
  8
FORMAT
 62
     0
100
AcDbLine
 10
-5.0
 20
0.0
 30
0.0
 11
-72.5
 21
0.0
 31
0.0
  0
LINE
  5
B0
330
A7
100
AcDbEntity
  8
FORMAT
 62
     0
100
AcDbLine
 10
0.0
 20
-5.0
 30
0.0
 11
0.0
 21
-72.5
 31
0.0
  0
LINE
  5
B1
330
A7
100
AcDbEntity
  8
FORMAT
 62
     0
100
AcDbLine
 10
5.0
 20
0.0
 30
0.0
 11
72.5
 21
0.0
 31
0.0
  0
ENDBLK
  5
A9
330
A7
100
AcDbEntity
  8
0
100
AcDbBlockEnd
  0
BLOCK
  5
C8
330
C7
100
AcDbEntity
  8
0
100
AcDbBlockBegin
  2
SW_CENTERMARKSYMBOL_1
 70
     0
 10
0.0
 20
0.0
 30
0.0
  3
SW_CENTERMARKSYMBOL_1
  1

  0
LINE
  5
CA
330
C7
100
AcDbEntity
  8
FORMAT
 62
     0
100
AcDbLine
 10
0.0
 20
0.0
 30
0.0
 11
0.0
 21
2.5
 31
0.0
  0
LINE
  5
CB
330
C7
100
AcDbEntity
  8
FORMAT
 62
     0
100
AcDbLine
 10
0.0
 20
0.0
 30
0.0
 11
-2.5
 21
0.0
 31
0.0
  0
LINE
  5
CC
330
C7
100
AcDbEntity
  8
FORMAT
 62
     0
100
AcDbLine
 10
0.0
 20
0.0
 30
0.0
 11
0.0
 21
-2.5
 31
0.0
  0
LINE
  5
CD
330
C7
100
AcDbEntity
  8
FORMAT
 62
     0
100
AcDbLine
 10
0.0
 20
0.0
 30
0.0
 11
2.5
 21
0.0
 31
0.0
  0
LINE
  5
CE
330
C7
100
AcDbEntity
  8
FORMAT
 62
     0
100
AcDbLine
 10
0.0
 20
5.0
 30
0.0
 11
0.0
 21
72.5
 31
0.0
  0
LINE
  5
CF
330
C7
100
AcDbEntity
  8
FORMAT
 62
     0
100
AcDbLine
 10
-5.0
 20
0.0
 30
0.0
 11
-72.5
 21
0.0
 31
0.0
  0
LINE
  5
D0
330
C7
100
AcDbEntity
  8
FORMAT
 62
     0
100
AcDbLine
 10
0.0
 20
-5.0
 30
0.0
 11
0.0
 21
-72.5
 31
0.0
  0
LINE
  5
D1
330
C7
100
AcDbEntity
  8
FORMAT
 62
     0
100
AcDbLine
 10
5.0
 20
0.0
 30
0.0
 11
72.5
 21
0.0
 31
0.0
  0
ENDBLK
  5
C9
330
C7
100
AcDbEntity
  8
0
100
AcDbBlockEnd
  0
ENDSEC
  0
SECTION
  2
ENTITIES
  0
LINE
  5
83
330
1F
100
AcDbEntity
  8
0
  6
Continuous
 62
     7
370
    25
100
AcDbLine
 10
43.7169943826
 20
94.5696344469
 30
0.0
 11
43.7169943826
 21
-21.4354137089
 31
0.0
  0
LINE
  5
84
330
1F
100
AcDbEntity
  8
0
  6
Continuous
 62
     7
370
    25
100
AcDbLine
 10
183.7169949786
 20
-21.4354137089
 30
0.0
 11
183.7169949786
 21
94.5696344469
 31
0.0
  0
ARC
  5
85
330
1F
100
AcDbEntity
  8
0
  6
Continuous
 62
     7
370
    25
100
AcDbCircle
 10
183.7169946806
 20
94.569636925
 30
0.0
 40
140.0000000000001
100
AcDbArc
 50
135.0
 51
180.0
  0
LINE
  5
86
330
1F
100
AcDbEntity
  8
0
  6
Continuous
 62
     7
370
    25
100
AcDbLine
 10
169.2195211427
 20
278.0620714519
 30
0.0
 11
84.722045146
 21
193.5645898674
 31
0.0
  0
LINE
  5
87
330
1F
100
AcDbEntity
  8
0
  6
Continuous
 62
     7
370
    25
100
AcDbLine
 10
183.7169949786
 20
94.5696344469
 30
0.0
 11
268.2144691126
 21
179.0671160314
 31
0.0
  0
LINE
  5
88
330
1F
100
AcDbEntity
  8
0
  6
Continuous
 62
     7
370
    25
100
AcDbLine
 10
113.7169946806
 20
-21.4354137089
 30
0.0
 11
183.7169949786
 21
-21.4354137089
 31
0.0
  0
LINE
  5
89
330
1F
100
AcDbEntity
  8
0
  6
Continuous
 62
     7
370
    25
100
AcDbLine
 10
43.7169943826
 20
-21.4354137089
 30
0.0
 11
113.7169946806
 21
-21.4354137089
 31
0.0
  0
LWPOLYLINE
  5
8A
330
1F
100
AcDbEntity
  8
0
  6
Continuous
 62
     7
370
    25
100
AcDbPolyline
 90
       26
 70
   128
 43
0.0
 10
218.7169914023
 20
228.5645862911
 10
221.8249638454
 20
225.4566212986
 10
224.9206726329
 20
222.3609050606
 10
227.9918988125
 20
219.2896863315
 10
231.026512839
 20
216.2550648544
 10
234.0125565307
 20
213.2690211628
 10
236.9382281677
 20
210.3433569763
 10
239.7919942514
 20
207.4895908926
 10
242.5625820534
 20
204.7190030906
 10
245.2390690224
 20
202.0425161217
 10
247.810875334
 20
199.4706949089
 10
250.2678681986
 20
197.0137020443
 10
252.6003469602
 20
194.6812381838
 10
254.7991027014
 20
192.4824824426
 10
256.855448045
 20
190.4261221979
 10
258.7612916605
 20
188.5202934835
 10
260.5090935604
 20
186.7724915836
 10
262.0919694082
 20
185.1896157358
 10
263.5036458151
 20
183.7779393289
 10
264.738579549
 20
182.543005595
 10
265.7918979303
 20
181.4896872137
 10
266.6594137327
 20
180.6221714113
 10
267.3377294914
 20
179.9438407514
 10
267.8241629974
 20
179.4574072454
 10
268.1167920009
 20
179.1647782419
 10
268.2144691126
 20
179.0671160314
  0
LWPOLYLINE
  5
8B
330
1F
100
AcDbEntity
  8
0
  6
Continuous
 62
     7
370
    25
100
AcDbPolyline
 90
       26
 70
   128
 43
0.0
 10
169.2195211427
 20
278.0620714519
 10
169.3171908037
 20
277.9643794391
 10
169.6098235325
 20
277.6717504356
 10
170.0962570385
 20
277.1853169296
 10
170.7745727972
 20
276.5070160721
 10
171.6420997755
 20
275.6394704674
 10
172.6954069809
 20
274.5861669872
 10
173.9303407149
 20
273.3512481544
 10
175.3420282976
 20
271.9395419452
 10
176.9248966948
 20
270.3566809986
 10
178.6726985947
 20
268.6088939998
 10
180.5785347597
 20
266.7030354832
 10
182.6348875539
 20
264.6467050407
 10
184.833643295
 20
262.4479492996
 10
187.1661146061
 20
260.1154705379
 10
189.6231074707
 20
257.6584776733
 10
192.1949212329
 20
255.0866564606
 10
194.8714007513
 20
252.4101694916
 10
197.6419960038
 20
249.6395965908
 10
200.4957620875
 20
246.7858156059
 10
203.4214337246
 20
243.8601514194
 10
206.4074699656
 20
240.8741077278
 10
209.4420914428
 20
237.8394862507
 10
212.5133176224
 20
234.7682675216
 10
215.6090189592
 20
231.6725512836
 10
218.7169914023
 20
228.5645862911
  0
LINE
  5
8C
330
1F
100
AcDbEntity
  8
0
  6
Continuous
 62
     1
370
    25
100
AcDbLine
 10
43.7169943826
 20
94.5696344469
 30
0.0
 11
183.7169949786
 21
94.5696344469
 31
0.0
  0
LWPOLYLINE
  5
8D
330
1F
100
AcDbEntity
  8
0
  6
Continuous
 62
     1
370
    25
100
AcDbPolyline
 90
       51
 70
   128
 43
0.0
 10
84.722045146
 20
193.5645898674
 10
84.8197166697
 20
193.4669127558
 10
85.1123475359
 20
193.1742837522
 10
85.5987810419
 20
192.6878502462
 10
86.2770986633
 20
192.0095344875
 10
87.1446237789
 20
191.142003784
 10
88.197932847
 20
190.0887003038
 10
89.4328665809
 20
188.8537665699
 10
90.844552301
 20
187.4420752619
 10
92.4274206982
 20
185.8592143152
 10
94.1752225981
 20
184.1114124153
 10
96.0810606257
 20
182.2055687998
 10
98.1374134199
 20
180.1492234562
 10
100.3361672984
 20
177.9504677151
 10
102.6686423348
 20
175.6179889534
 10
105.125634268
 20
173.1609960888
 10
107.6974466333
 20
170.5891897772
 10
110.3739296441
 20
167.9127028082
 10
113.1445202982
 20
165.1421150062
 10
115.9982842283
 20
162.2883489225
 10
118.923959125
 20
159.3626698349
 10
121.9099986256
 20
156.3766261432
 10
124.9446182401
 20
153.3420195673
 10
128.0158416258
 20
150.2707859371
 10
131.1115485505
 20
147.1750846002
 10
134.219519131
 20
144.0671047066
 10
137.3274915741
 20
140.959139714
 10
140.4231984989
 20
137.8634383772
 10
143.4944209532
 20
134.792204747
 10
146.5290424303
 20
131.7575832699
 10
149.5150823967
 20
128.7715544794
 10
152.4407540337
 20
125.8458753918
 10
155.2945201175
 20
122.992109308
 10
158.0651116447
 20
120.2215215061
 10
160.7415948884
 20
117.5450345371
 10
163.3134049253
 20
114.9732282255
 10
165.7703977899
 20
112.5162353609
 10
168.1028728263
 20
110.1837565992
 10
170.3016248421
 20
107.9850008581
 10
172.3579813616
 20
105.9286555145
 10
174.2638175265
 20
104.022811899
 10
176.0116194264
 20
102.2750099991
 10
177.5944878237
 20
100.6921416018
 10
179.0061716811
 20
99.2804577444
 10
180.241105415
 20
98.0455240104
 10
181.2944163458
 20
96.9922130797
 10
182.1619395987
 20
96.1246898268
 10
182.8402553574
 20
95.4463740681
 10
183.3266888635
 20
94.959940562
 10
183.6193253176
 20
94.6673115585
 10
183.7169949786
 20
94.5696344469
  0
LINE
  5
8E
330
1F
100
AcDbEntity
  8
0
  6
Continuous
 62
     7
370
    25
100
AcDbLine
 10
-236.0995568555
 20
228.5645862911
 30
0.0
 11
-236.0995568555
 21
144.0671047066
 31
0.0
  0
LINE
  5
8F
330
1F
100
AcDbEntity
  8
0
  6
Continuous
 62
     7
370
    25
100
AcDbLine
 10
-96.0995562595
 20
144.0671047066
 30
0.0
 11
-96.0995562595
 21
228.5645862911
 31
0.0
  0
LINE
  5
90
330
1F
100
AcDbEntity
  8
0
  6
Continuous
 62
     7
370
    25
100
AcDbLine
 10
-236.0995568555
 20
144.0671047066
 30
0.0
 11
-236.0995568555
 21
94.5696344469
 31
0.0
  0
LINE
  5
91
330
1F
100
AcDbEntity
  8
0
  6
Continuous
 62
     7
370
    25
100
AcDbLine
 10
-96.0995562595
 20
94.5696344469
 30
0.0
 11
-96.0995562595
 21
144.0671047066
 31
0.0
  0
LINE
  5
92
330
1F
100
AcDbEntity
  8
0
  6
Continuous
 62
     7
370
    25
100
AcDbLine
 10
-236.0995568555
 20
94.5696344469
 30
0.0
 11
-236.0995568555
 21
-21.4354137089
 31
0.0
  0
LINE
  5
93
330
1F
100
AcDbEntity
  8
0
  6
Continuous
 62
     7
370
    25
100
AcDbLine
 10
-96.0995562595
 20
-21.4354137089
 30
0.0
 11
-96.0995562595
 21
94.5696344469
 31
0.0
  0
LWPOLYLINE
  5
94
330
1F
100
AcDbEntity
  8
0
  6
Continuous
 62
     7
370
    25
100
AcDbPolyline
 90
      101
 70
   128
 43
0.0
 10
-236.0995568555
 20
228.5645862911
 10
-235.9614305418
 20
225.4566212986
 10
-235.5475880426
 20
222.3609050606
 10
-234.8596610349
 20
219.2896863315
 10
-233.9003764313
 20
216.2550648544
 10
-232.6735116761
 20
213.2690211628
 10
-231.1839096468
 20
210.3433569763
 10
-229.4374488514
 20
207.4895908926
 10
-227.4410248023
 20
204.7190030906
 10
-225.2025127631
 20
202.0425161217
 10
-222.7307453972
 20
199.4706949089
 10
-220.0354829651
 20
197.0137020443
 10
-217.1273611706
 20
194.6812381838
 10
-214.0178539079
 20
192.4824824426
 10
-210.7192360085
 20
190.4261221979
 10
-207.2445236367
 20
188.5202934835
 10
-203.6074333113
 20
186.7724915836
 10
-199.8223148506
 20
185.1896157358
 10
-195.9041066688
 20
183.7779393289
 10
-191.868276171
 20
182.543005595
 10
-187.7307452482
 20
181.4896872137
 10
-183.5078492981
 20
180.6221714113
 10
-179.2162487503
 20
179.9438407514
 10
-174.8728824999
 20
179.4574072454
 10
-170.4948929359
 20
179.1647782419
 10
-166.0995565575
 20
179.0671160314
 10
-161.7042201791
 20
179.1647782419
 10
-157.326230615
 20
179.4574072454
 10
-152.9828643646
 20
179.9438407514
 10
-148.6912638169
 20
180.6221714113
 10
-144.4683678668
 20
181.4896872137
 10
-140.3308369439
 20
182.543005595
 10
-136.2950064462
 20
183.7779393289
 10
-132.3767982643
 20
185.1896157358
 10
-128.5916798037
 20
186.7724915836
 10
-124.9545894783
 20
188.5202934835
 10
-121.4798771065
 20
190.4261221979
 10
-118.1812592071
 20
192.4824824426
 10
-115.0717519444
 20
194.6812381838
 10
-112.1636301499
 20
197.0137020443
 10
-109.4683677178
 20
199.4706949089
 10
-106.9966003519
 20
202.0425161217
 10
-104.7580883127
 20
204.7190030906
 10
-102.7616642636
 20
207.4895908926
 10
-101.0152034682
 20
210.3433569763
 10
-99.5256014388
 20
213.2690211628
 10
-98.2987366837
 20
216.2550648544
 10
-97.3394520801
 20
219.2896863315
 10
-96.6515250724
 20
222.3609050606
 10
-96.2376825732
 20
225.4566212986
 10
-96.0995562595
 20
228.5645862911
 10
-96.2376825732
 20
231.6725512836
 10
-96.6515250724
 20
234.7682675216
 10
-97.3394520801
 20
237.8394862507
 10
-98.2987366837
 20
240.8741077278
 10
-99.5256014388
 20
243.8601514194
 10
-101.0152034682
 20
246.7858156059
 10
-102.7616642636
 20
249.6395965908
 10
-104.7580883127
 20
252.4101694916
 10
-106.9966003519
 20
255.0866564606
 10
-109.4683677178
 20
257.6584776733
 10
-112.1636301499
 20
260.1154705379
 10
-115.0717519444
 20
262.4479492996
 10
-118.1812592071
 20
264.6467050407
 10
-121.4798771065
 20
266.7030354832
 10
-124.9545894783
 20
268.6088939998
 10
-128.5916798037
 20
270.3566809986
 10
-132.3767982643
 20
271.9395419452
 10
-136.2950064462
 20
273.3512481544
 10
-140.3308369439
 20
274.5861669872
 10
-144.4683678668
 20
275.6394704674
 10
-148.6912638169
 20
276.5070160721
 10
-152.9828643646
 20
277.1853169296
 10
-157.326230615
 20
277.6717504356
 10
-161.7042201791
 20
277.9643794391
 10
-166.0995565575
 20
278.0620714519
 10
-170.4948929359
 20
277.9643794391
 10
-174.8728824999
 20
277.6717504356
 10
-179.2162487503
 20
277.1853169296
 10
-183.5078492981
 20
276.5070160721
 10
-187.7307452482
 20
275.6394704674
 10
-191.868276171
 20
274.5861669872
 10
-195.9041066688
 20
273.3512481544
 10
-199.8223148506
 20
271.9395419452
 10
-203.6074333113
 20
270.3566809986
 10
-207.2445236367
 20
268.6088939998
 10
-210.7192360085
 20
266.7030354832
 10
-214.0178539079
 20
264.6467050407
 10
-217.1273611706
 20
262.4479492996
 10
-220.0354829651
 20
260.1154705379
 10
-222.7307453972
 20
257.6584776733
 10
-225.2025127631
 20
255.0866564606
 10
-227.4410248023
 20
252.4101694916
 10
-229.4374488514
 20
249.6395965908
 10
-231.1839096468
 20
246.7858156059
 10
-232.6735116761
 20
243.8601514194
 10
-233.9003764313
 20
240.8741077278
 10
-234.8596610349
 20
237.8394862507
 10
-235.5475880426
 20
234.7682675216
 10
-235.9614305418
 20
231.6725512836
 10
-236.0995568555
 20
228.5645862911
  0
LWPOLYLINE
  5
95
330
1F
100
AcDbEntity
  8
0
  6
Continuous
 62
     7
370
    25
100
AcDbPolyline
 90
       95
 70
   128
 43
0.0
 10
-227.7995579165
 20
228.5645862911
 10
-227.6617743295
 20
231.4786573742
 10
-227.2490382415
 20
234.3797048424
 10
-226.5631936711
 20
237.2547646854
 10
-225.6073028069
 20
240.0910219047
 10
-224.385638557
 20
242.8758105133
 10
-222.9036547464
 20
245.5966731403
 10
-221.1679674905
 20
248.2414802406
 10
-219.1863328439
 20
250.7984002922
 10
-216.9676020962
 20
253.2559892032
 10
-214.521677069
 20
255.6033393238
 10
-211.8594914895
 20
257.8299006317
 10
-208.9929290336
 20
259.9257787559
 10
-205.9347935241
 20
261.8815859649
 10
-202.6987456005
 20
263.6885901783
 10
-199.2992393893
 20
265.3387149666
 10
-195.7514517229
 20
266.8245991562
 10
-192.0712318492
 20
268.1395968292
 10
-188.2750157487
 20
269.2778369282
 10
-184.3797590804
 20
270.2342530582
 10
-180.4028598812
 20
271.0045834873
 10
-176.3620775413
 20
271.5853413437
 10
-172.2754606266
 20
271.9739636276
 10
-168.1612607312
 20
272.1687218044
 10
-164.0378523838
 20
272.1687218044
 10
-159.9236524884
 20
271.9739636276
 10
-155.8370355737
 20
271.5853413437
 10
-151.7962532338
 20
271.0045834873
 10
-147.8193540346
 20
270.2342530582
 10
-143.9240973663
 20
269.2778369282
 10
-140.1278812658
 20
268.1395968292
 10
-136.447661392
 20
266.8245991562
 10
-132.8998737257
 20
265.3387149666
 10
-129.5003675144
 20
263.6885901783
 10
-126.2643195909
 20
261.8815859649
 10
-123.2061840814
 20
259.9257787559
 10
-120.3396216255
 20
257.8299006317
 10
-117.677436046
 20
255.6033393238
 10
-115.2315110188
 20
253.2559892032
 10
-113.0127802711
 20
250.7984002922
 10
-111.0311456245
 20
248.2414802406
 10
-109.2954583686
 20
245.5966731403
 10
-107.813474558
 20
242.8758105133
 10
-106.5918103081
 20
240.0910219047
 10
-105.6359194439
 20
237.2547646854
 10
-104.9500748735
 20
234.3797048424
 10
-104.5373387855
 20
231.4786573742
 10
-104.3995551985
 20
228.5645862911
 10
-104.5373387855
 20
225.6505301092
 10
-104.9500748735
 20
222.749482641
 10
-105.6359194439
 20
219.8744078968
 10
-106.5918103081
 20
217.0381357763
 10
-107.813474558
 20
214.2533620689
 10
-109.2954583686
 20
211.5324994419
 10
-111.0311456245
 20
208.8876923416
 10
-113.0127802711
 20
206.3307871912
 10
-115.2315110188
 20
203.8731684778
 10
-117.677436046
 20
201.5258332584
 10
-120.3396216255
 20
199.2992570494
 10
-123.2061840814
 20
197.2033938263
 10
-126.2643195909
 20
195.2476015184
 10
-129.5003675144
 20
193.4405973051
 10
-132.8998737257
 20
191.7904725168
 10
-136.447661392
 20
190.3045883272
 10
-140.1278812658
 20
188.989575753
 10
-143.9240973663
 20
187.8513207529
 10
-147.8193540346
 20
186.8949046228
 10
-151.7962532338
 20
186.1245890949
 10
-155.8370355737
 20
185.5438312385
 10
-159.9236524884
 20
185.1552089546
 10
-164.0378523838
 20
184.960465679
 10
-168.1612607312
 20
184.960465679
 10
-172.2754606266
 20
185.1552089546
 10
-176.3620775413
 20
185.5438312385
 10
-180.4028598812
 20
186.1245890949
 10
-184.3797590804
 20
186.8949046228
 10
-188.2750157487
 20
187.8513207529
 10
-192.0712318492
 20
188.989575753
 10
-195.7514517229
 20
190.3045883272
 10
-199.2992393893
 20
191.7904725168
 10
-202.6987456005
 20
193.4405973051
 10
-205.9347935241
 20
195.2476015184
 10
-208.9929290336
 20
197.2033938263
 10
-211.8594914895
 20
199.2992570494
 10
-214.521677069
 20
201.5258332584
 10
-216.9676020962
 20
203.8731684778
 10
-219.1863328439
 20
206.3307871912
 10
-221.1679674905
 20
208.8876923416
 10
-222.9036547464
 20
211.5324994419
 10
-224.385638557
 20
214.2533620689
 10
-225.6073028069
 20
217.0381357763
 10
-226.5631936711
 20
219.8744078968
 10
-227.2490382415
 20
222.749482641
 10
-227.6617743295
 20
225.6505301092
 10
-227.7995579165
 20
228.5645862911
  0
LINE
  5
96
330
1F
100
AcDbEntity
  8
0
  6
Continuous
 62
     7
370
    25
100
AcDbLine
 10
-236.0995568555
 20
-21.4354137089
 30
0.0
 11
-96.0995562595
 21
-21.4354137089
 31
0.0
  0
LWPOLYLINE
  5
97
330
1F
100
AcDbEntity
  8
0
  6
Continuous
 62
     1
370
    25
100
AcDbPolyline
 90
       26
 70
   128
 43
0.0
 10
-166.0995565575
 20
94.5696344469
 10
-161.7042201791
 20
94.6673115585
 10
-157.326230615
 20
94.959940562
 10
-152.9828643646
 20
95.4463740681
 10
-148.6912638169
 20
96.1246898268
 10
-144.4683678668
 20
96.9922130797
 10
-140.3308369439
 20
98.0455240104
 10
-136.2950064462
 20
99.2804577444
 10
-132.3767982643
 20
100.6921416018
 10
-128.5916798037
 20
102.2750099991
 10
-124.9545894783
 20
104.022811899
 10
-121.4798771065
 20
105.9286555145
 10
-118.1812592071
 20
107.9850008581
 10
-115.0717519444
 20
110.1837565992
 10
-112.1636301499
 20
112.5162353609
 10
-109.4683677178
 20
114.9732282255
 10
-106.9966003519
 20
117.5450345371
 10
-104.7580883127
 20
120.2215215061
 10
-102.7616642636
 20
122.992109308
 10
-101.0152034682
 20
125.8458753918
 10
-99.5256014388
 20
128.7715544794
 10
-98.2987366837
 20
131.7575832699
 10
-97.3394520801
 20
134.792204747
 10
-96.6515250724
 20
137.8634383772
 10
-96.2376825732
 20
140.959139714
 10
-96.0995562595
 20
144.0671047066
  0
LWPOLYLINE
  5
98
330
1F
100
AcDbEntity
  8
0
  6
Continuous
 62
     1
370
    25
100
AcDbPolyline
 90
       26
 70
   128
 43
0.0
 10
-236.0995568555
 20
144.0671047066
 10
-235.9614305418
 20
140.959139714
 10
-235.5475880426
 20
137.8634383772
 10
-234.8596610349
 20
134.792204747
 10
-233.9003764313
 20
131.7575832699
 10
-232.6735116761
 20
128.7715544794
 10
-231.1839096468
 20
125.8458753918
 10
-229.4374488514
 20
122.992109308
 10
-227.4410248023
 20
120.2215215061
 10
-225.2025127631
 20
117.5450345371
 10
-222.7307453972
 20
114.9732282255
 10
-220.0354829651
 20
112.5162353609
 10
-217.1273611706
 20
110.1837565992
 10
-214.0178539079
 20
107.9850008581
 10
-210.7192360085
 20
105.9286555145
 10
-207.2445236367
 20
104.022811899
 10
-203.6074333113
 20
102.2750099991
 10
-199.8223148506
 20
100.6921416018
 10
-195.9041066688
 20
99.2804577444
 10
-191.868276171
 20
98.0455240104
 10
-187.7307452482
 20
96.9922130797
 10
-183.5078492981
 20
96.1246898268
 10
-179.2162487503
 20
95.4463740681
 10
-174.8728824999
 20
94.959940562
 10
-170.4948929359
 20
94.6673115585
 10
-166.0995565575
 20
94.5696344469
  0
ARC
  5
99
330
1F
100
AcDbEntity
  8
0
  6
Continuous
 62
     1
370
    25
100
AcDbCircle
 10
-166.0995565575
 20
101.335072929
 30
0.0
 40
86.36382389842238
100
AcDbArc
 50
79.7323245722
 51
100.2676754278
  0
LINE
  5
9A
330
1F
100
AcDbEntity
  8
0
  6
Continuous
 62
     1
370
    25
100
AcDbLine
 10
-166.0995565575
 20
94.5696344469
 30
0.0
 11
-96.0995562595
 21
94.5696344469
 31
0.0
  0
LINE
  5
9B
330
1F
100
AcDbEntity
  8
0
  6
Continuous
 62
     1
370
    25
100
AcDbLine
 10
-236.0995568555
 20
94.5696344469
 30
0.0
 11
-166.0995565575
 21
94.5696344469
 31
0.0
  0
LINE
  5
9C
330
1F
100
AcDbEntity
  8
0
  6
Continuous
 62
     7
370
    25
100
AcDbLine
 10
218.7169914023
 20
506.8164641303
 30
0.0
 11
134.219519131
 21
506.8164641303
 31
0.0
  0
LINE
  5
9D
330
1F
100
AcDbEntity
  8
0
  6
Continuous
 62
     7
370
    25
100
AcDbLine
 10
134.219519131
 20
366.8164635342
 30
0.0
 11
218.7169914023
 21
366.8164635342
 31
0.0
  0
LINE
  5
9E
330
1F
100
AcDbEntity
  8
0
  6
Continuous
 62
     7
370
    25
100
AcDbLine
 10
134.219519131
 20
506.8164641303
 30
0.0
 11
113.7169946806
 21
506.8164641303
 31
0.0
  0
LINE
  5
9F
330
1F
100
AcDbEntity
  8
0
  6
Continuous
 62
     7
370
    25
100
AcDbLine
 10
113.7169946806
 20
366.8164635342
 30
0.0
 11
134.219519131
 21
366.8164635342
 31
0.0
  0
CIRCLE
  5
A0
330
1F
100
AcDbEntity
  8
0
  6
Continuous
 62
     7
370
    25
100
AcDbCircle
 10
113.7169946806
 20
436.8164638322
 30
0.0
 40
61.69999999999999
  0
CIRCLE
  5
A1
330
1F
100
AcDbEntity
  8
0
  6
Continuous
 62
     7
370
    25
100
AcDbCircle
 10
113.7169946806
 20
436.8164638322
 30
0.0
 40
70.0
  0
LWPOLYLINE
  5
A2
330
1F
100
AcDbEntity
  8
0
  6
Continuous
 62
     7
370
    25
100
AcDbPolyline
 90
       52
 70
   128
 43
0.0
 10
218.7169914023
 20
506.8164641303
 10
221.8249638454
 20
506.6783378166
 10
224.9206726329
 20
506.2644953173
 10
227.9918988125
 20
505.5765683097
 10
231.026512839
 20
504.6172837061
 10
234.0125565307
 20
503.3904189509
 10
236.9382281677
 20
501.9008169216
 10
239.7919942514
 20
500.1543561262
 10
242.5625820534
 20
498.157932077
 10
245.2390690224
 20
495.9194200379
 10
247.810875334
 20
493.4476526719
 10
250.2678681986
 20
490.7523902398
 10
252.6003469602
 20
487.8442684454
 10
254.7991027014
 20
484.7347611827
 10
256.855448045
 20
481.4361432832
 10
258.7612916605
 20
477.9614309114
 10
260.5090935604
 20
474.3243405861
 10
262.0919694082
 20
470.5392221254
 10
263.5036458151
 20
466.6210139435
 10
264.738579549
 20
462.5851834458
 10
265.7918979303
 20
458.4476525229
 10
266.6594137327
 20
454.2247565728
 10
267.3377294914
 20
449.9331560251
 10
267.8241629974
 20
445.5897897747
 10
268.1167920009
 20
441.2118002106
 10
268.2144691126
 20
436.8164638322
 10
268.1167920009
 20
432.4211274539
 10
267.8241629974
 20
428.0431378898
 10
267.3377294914
 20
423.6997716394
 10
266.6594137327
 20
419.4081710917
 10
265.7918979303
 20
415.1852751416
 10
264.738579549
 20
411.0477442187
 10
263.5036458151
 20
407.011913721
 10
262.0919694082
 20
403.0937055391
 10
260.5090935604
 20
399.3085870784
 10
258.7612916605
 20
395.6714967531
 10
256.855448045
 20
392.1967843813
 10
254.7991027014
 20
388.8981664818
 10
252.6003469602
 20
385.7886592191
 10
250.2678681986
 20
382.8805374247
 10
247.810875334
 20
380.1852749926
 10
245.2390690224
 20
377.7135076266
 10
242.5625820534
 20
375.4749955875
 10
239.7919942514
 20
373.4785715383
 10
236.9382281677
 20
371.7321107429
 10
234.0125565307
 20
370.2425087136
 10
231.026512839
 20
369.0156439584
 10
227.9918988125
 20
368.0563593548
 10
224.9206726329
 20
367.3684323472
 10
221.8249638454
 20
366.9545898479
 10
218.7169914023
 20
366.8164635342
 10
218.7169914023
 20
366.8164635342
  0
ARC
  5
A3
330
1F
100
AcDbEntity
  8
0
  6
Continuous
 62
     7
370
    25
100
AcDbCircle
 10
262.2664469921
 20
436.8164638322
 30
0.0
 40
87.17795861851413
100
AcDbArc
 50
176.7982282451
 51
183.2017717549
  0
LWPOLYLINE
  5
A4
330
1F
100
AcDbEntity
  8
0
  6
Continuous
 62
     1
370
    25
100
AcDbPolyline
 90
       26
 70
   128
 43
0.0
 10
183.7169949786
 20
436.8164638322
 10
183.6193253176
 20
432.4211274539
 10
183.3266888635
 20
428.0431378898
 10
182.8402553574
 20
423.6997716394
 10
182.1619395987
 20
419.4081710917
 10
181.2944163458
 20
415.1852751416
 10
180.241105415
 20
411.0477442187
 10
179.0061716811
 20
407.011913721
 10
177.5944878237
 20
403.0937055391
 10
176.0116194264
 20
399.3085870784
 10
174.2638175265
 20
395.6714967531
 10
172.3579813616
 20
392.1967843813
 10
170.3016248421
 20
388.8981664818
 10
168.1028728263
 20
385.7886592191
 10
165.7703977899
 20
382.8805374247
 10
163.3134049253
 20
380.1852749926
 10
160.7415948884
 20
377.7135076266
 10
158.0651116447
 20
375.4749955875
 10
155.2945201175
 20
373.4785715383
 10
152.4407540337
 20
371.7321107429
 10
149.5150823967
 20
370.2425087136
 10
146.5290424303
 20
369.0156439584
 10
143.4944209532
 20
368.0563593548
 10
140.4231984989
 20
367.3684323472
 10
137.3274915741
 20
366.9545898479
 10
134.219519131
 20
366.8164635342
  0
LWPOLYLINE
  5
A5
330
1F
100
AcDbEntity
  8
0
  6
Continuous
 62
     1
370
    25
100
AcDbPolyline
 90
       26
 70
   128
 43
0.0
 10
134.219519131
 20
506.8164641303
 10
137.3274915741
 20
506.6783378166
 10
140.4231984989
 20
506.2644953173
 10
143.4944209532
 20
505.5765683097
 10
146.5290424303
 20
504.6172837061
 10
149.5150823967
 20
503.3904189509
 10
152.4407540337
 20
501.9008169216
 10
155.2945201175
 20
500.1543561262
 10
158.0651116447
 20
498.157932077
 10
160.7415948884
 20
495.9194200379
 10
163.3134049253
 20
493.4476526719
 10
165.7703977899
 20
490.7523902398
 10
168.1028728263
 20
487.8442684454
 10
170.3016248421
 20
484.7347611827
 10
172.3579813616
 20
481.4361432832
 10
174.2638175265
 20
477.9614309114
 10
176.0116194264
 20
474.3243405861
 10
177.5944878237
 20
470.5392221254
 10
179.0061716811
 20
466.6210139435
 10
180.241105415
 20
462.5851834458
 10
181.2944163458
 20
458.4476525229
 10
182.1619395987
 20
454.2247565728
 10
182.8402553574
 20
449.9331560251
 10
183.3266888635
 20
445.5897897747
 10
183.6193253176
 20
441.2118002106
 10
183.7169949786
 20
436.8164638322
  0
LWPOLYLINE
  5
A6
330
1F
100
AcDbEntity
  8
0
  6
Continuous
 62
     1
370
    25
100
AcDbPolyline
 90
       44
 70
   128
 43
0.0
 10
125.7270959095
 20
497.3362745982
 10
125.5293370114
 20
497.2801009458
 10
122.6930742041
 20
496.3242100817
 10
119.9082911835
 20
495.1025458318
 10
117.1874259954
 20
493.6205620211
 10
114.5426302456
 20
491.8848747653
 10
111.9857161894
 20
489.9032401186
 10
109.528103646
 20
487.6845093709
 10
107.180769358
 20
485.2385843438
 10
104.9541964085
 20
482.5763987642
 10
102.8583294601
 20
479.7098363084
 10
100.9025287704
 20
476.6517007989
 10
99.095530145
 20
473.4156528753
 10
97.4454034941
 20
470.016146664
 10
95.9595193045
 20
466.4683589977
 10
94.6445141808
 20
462.7881391239
 10
93.5062610434
 20
458.9919230235
 10
92.549841188
 20
455.0966663551
 10
91.7795293854
 20
451.1197671559
 10
91.1987659411
 20
447.0789848161
 10
90.8101417945
 20
442.9923679013
 10
90.6153947936
 20
438.8781680059
 10
90.6153947936
 20
434.7547596586
 10
90.8101417945
 20
430.6405597632
 10
91.1987659411
 20
426.5539428484
 10
91.7795293854
 20
422.5131605086
 10
92.549841188
 20
418.5362613094
 10
93.5062610434
 20
414.641004641
 10
94.6445141808
 20
410.8447885406
 10
95.9595193045
 20
407.1645686668
 10
97.4454034941
 20
403.6167810005
 10
99.095530145
 20
400.2172747892
 10
100.9025287704
 20
396.9812268656
 10
102.8583294601
 20
393.9230913561
 10
104.9541964085
 20
391.0565289003
 10
107.180769358
 20
388.3943433207
 10
109.528103646
 20
385.9484182936
 10
111.9857161894
 20
383.7296875459
 10
114.5426302456
 20
381.7480528992
 10
117.1874259954
 20
380.0123656434
 10
119.9082911835
 20
378.5303818327
 10
122.6930742041
 20
377.3087175828
 10
125.5293370114
 20
376.3528267187
 10
125.7270959095
 20
376.2966530663
  0
INSERT
  5
B2
330
1F
100
AcDbEntity
  8
FORMAT
 62
     7
100
AcDbBlockReference
  2
SW_CENTERMARKSYMBOL_0
 10
113.7169946806
 20
436.8164638322
 30
0.0
  0
LINE
  5
B3
330
1F
100
AcDbEntity
  8
0
  6
Continuous
 62
     7
370
    25
100
AcDbLine
 10
390.7360668978
 20
94.5696344469
 30
0.0
 11
390.7360668978
 21
-21.4354137089
 31
0.0
  0
LINE
  5
B4
330
1F
100
AcDbEntity
  8
0
  6
Continuous
 62
     7
370
    25
100
AcDbLine
 10
530.7360674938
 20
-21.4354137089
 30
0.0
 11
530.7360674938
 21
94.5696344469
 31
0.0
  0
LINE
  5
B5
330
1F
100
AcDbEntity
  8
0
  6
Continuous
 62
     7
370
    25
100
AcDbLine
 10
530.7360674938
 20
94.5696344469
 30
0.0
 11
530.7360674938
 21
144.0671047066
 31
0.0
  0
LINE
  5
B6
330
1F
100
AcDbEntity
  8
0
  6
Continuous
 62
     7
370
    25
100
AcDbLine
 10
390.7360668978
 20
144.0671047066
 30
0.0
 11
390.7360668978
 21
94.5696344469
 31
0.0
  0
LINE
  5
B7
330
1F
100
AcDbEntity
  8
0
  6
Continuous
 62
     7
370
    25
100
AcDbLine
 10
390.7360668978
 20
228.5645862911
 30
0.0
 11
390.7360668978
 21
144.0671047066
 31
0.0
  0
LINE
  5
B8
330
1F
100
AcDbEntity
  8
0
  6
Continuous
 62
     7
370
    25
100
AcDbLine
 10
530.7360674938
 20
144.0671047066
 30
0.0
 11
530.7360674938
 21
228.5645862911
 31
0.0
  0
LINE
  5
B9
330
1F
100
AcDbEntity
  8
0
  6
Continuous
 62
     7
370
    25
100
AcDbLine
 10
390.7360668978
 20
-21.4354137089
 30
0.0
 11
530.7360674938
 21
-21.4354137089
 31
0.0
  0
LWPOLYLINE
  5
BA
330
1F
100
AcDbEntity
  8
0
  6
Continuous
 62
     7
370
    25
100
AcDbPolyline
 90
       51
 70
   128
 43
0.0
 10
390.7360668978
 20
228.5645862911
 10
390.8741932115
 20
231.6725512836
 10
391.2880357107
 20
234.7682675216
 10
391.9759627184
 20
237.8394862507
 10
392.935247322
 20
240.8741077278
 10
394.1621120771
 20
243.8601514194
 10
395.6517141065
 20
246.7858156059
 10
397.3981749019
 20
249.6395965908
 10
399.394598951
 20
252.4101694916
 10
401.6331109902
 20
255.0866564606
 10
404.1048783561
 20
257.6584776733
 10
406.8001407882
 20
260.1154705379
 10
409.7082625827
 20
262.4479492996
 10
412.8177698454
 20
264.6467050407
 10
416.1163877448
 20
266.7030354832
 10
419.5911001166
 20
268.6088939998
 10
423.228190442
 20
270.3566809986
 10
427.0133089026
 20
271.9395419452
 10
430.9315170845
 20
273.3512481544
 10
434.9673475822
 20
274.5861669872
 10
439.1048785051
 20
275.6394704674
 10
443.3277744552
 20
276.5070160721
 10
447.6193750029
 20
277.1853169296
 10
451.9627412533
 20
277.6717504356
 10
456.3407308174
 20
277.9643794391
 10
460.7360671958
 20
278.0620714519
 10
465.1314035742
 20
277.9643794391
 10
469.5093931382
 20
277.6717504356
 10
473.8527593886
 20
277.1853169296
 10
478.1443599364
 20
276.5070160721
 10
482.3672558865
 20
275.6394704674
 10
486.5047868093
 20
274.5861669872
 10
490.5406173071
 20
273.3512481544
 10
494.4588254889
 20
271.9395419452
 10
498.2439439496
 20
270.3566809986
 10
501.881034275
 20
268.6088939998
 10
505.3557466468
 20
266.7030354832
 10
508.6543645462
 20
264.6467050407
 10
511.7638718089
 20
262.4479492996
 10
514.6719936034
 20
260.1154705379
 10
517.3672560355
 20
257.6584776733
 10
519.8390234014
 20
255.0866564606
 10
522.0775354406
 20
252.4101694916
 10
524.0739594897
 20
249.6395965908
 10
525.8204202851
 20
246.7858156059
 10
527.3100223144
 20
243.8601514194
 10
528.5368870696
 20
240.8741077278
 10
529.4961716732
 20
237.8394862507
 10
530.1840986809
 20
234.7682675216
 10
530.5979411801
 20
231.6725512836
 10
530.7360674938
 20
228.5645862911
  0
LINE
  5
BB
330
1F
100
AcDbEntity
  8
0
  6
Continuous
 62
     1
370
    25
100
AcDbLine
 10
390.7360668978
 20
94.5696344469
 30
0.0
 11
530.7360674938
 21
94.5696344469
 31
0.0
  0
LWPOLYLINE
  5
BC
330
1F
100
AcDbEntity
  8
0
  6
Continuous
 62
     1
370
    25
100
AcDbPolyline
 90
       51
 70
   128
 43
0.0
 10
390.7360668978
 20
144.0671047066
 10
390.8741932115
 20
147.1750846002
 10
391.2880357107
 20
150.2707859371
 10
391.9759627184
 20
153.3420195673
 10
392.935247322
 20
156.3766261432
 10
394.1621120771
 20
159.3626698349
 10
395.6517141065
 20
162.2883489225
 10
397.3981749019
 20
165.1421150062
 10
399.394598951
 20
167.9127028082
 10
401.6331109902
 20
170.5891897772
 10
404.1048783561
 20
173.1609960888
 10
406.8001407882
 20
175.6179889534
 10
409.7082625827
 20
177.9504677151
 10
412.8177698454
 20
180.1492234562
 10
416.1163877448
 20
182.2055687998
 10
419.5911001166
 20
184.1114124153
 10
423.228190442
 20
185.8592143152
 10
427.0133089026
 20
187.4420752619
 10
430.9315170845
 20
188.8537665699
 10
434.9673475822
 20
190.0887003038
 10
439.1048785051
 20
191.142003784
 10
443.3277744552
 20
192.0095344875
 10
447.6193750029
 20
192.6878502462
 10
451.9627412533
 20
193.1742837522
 10
456.3407308174
 20
193.4669127558
 10
460.7360671958
 20
193.5645898674
 10
465.1314035742
 20
193.4669127558
 10
469.5093931382
 20
193.1742837522
 10
473.8527593886
 20
192.6878502462
 10
478.1443599364
 20
192.0095344875
 10
482.3672558865
 20
191.142003784
 10
486.5047868093
 20
190.0887003038
 10
490.5406173071
 20
188.8537665699
 10
494.4588254889
 20
187.4420752619
 10
498.2439439496
 20
185.8592143152
 10
501.881034275
 20
184.1114124153
 10
505.3557466468
 20
182.2055687998
 10
508.6543645462
 20
180.1492234562
 10
511.7638718089
 20
177.9504677151
 10
514.6719936034
 20
175.6179889534
 10
517.3672560355
 20
173.1609960888
 10
519.8390234014
 20
170.5891897772
 10
522.0775354406
 20
167.9127028082
 10
524.0739594897
 20
165.1421150062
 10
525.8204202851
 20
162.2883489225
 10
527.3100223144
 20
159.3626698349
 10
528.5368870696
 20
156.3766261432
 10
529.4961716732
 20
153.3420195673
 10
530.1840986809
 20
150.2707859371
 10
530.5979411801
 20
147.1750846002
 10
530.7360674938
 20
144.0671047066
  0
LINE
  5
BD
330
1F
100
AcDbEntity
  8
0
  6
Continuous
 62
     7
370
    25
100
AcDbLine
 10
218.7169914023
 20
-180.1547811032
 30
0.0
 11
134.219519131
 21
-180.1547811032
 31
0.0
  0
LINE
  5
BE
330
1F
100
AcDbEntity
  8
0
  6
Continuous
 62
     7
370
    25
100
AcDbLine
 10
134.219519131
 20
-320.1547816992
 30
0.0
 11
218.7169914023
 21
-320.1547816992
 31
0.0
  0
LINE
  5
BF
330
1F
100
AcDbEntity
  8
0
  6
Continuous
 62
     7
370
    25
100
AcDbLine
 10
113.7169946806
 20
-320.1547816992
 30
0.0
 11
134.219519131
 21
-320.1547816992
 31
0.0
  0
LINE
  5
C0
330
1F
100
AcDbEntity
  8
0
  6
Continuous
 62
     7
370
    25
100
AcDbLine
 10
134.219519131
 20
-180.1547811032
 30
0.0
 11
113.7169946806
 21
-180.1547811032
 31
0.0
  0
LWPOLYLINE
  5
C1
330
1F
100
AcDbEntity
  8
0
  6
Continuous
 62
     7
370
    25
100
AcDbPolyline
 90
      101
 70
   128
 43
0.0
 10
218.7169914023
 20
-320.1547816992
 10
221.8249638454
 20
-320.0166553855
 10
224.9206726329
 20
-319.6028128863
 10
227.9918988125
 20
-318.9148858786
 10
231.026512839
 20
-317.955601275
 10
234.0125565307
 20
-316.7287365199
 10
236.9382281677
 20
-315.2391344905
 10
239.7919942514
 20
-313.4926736951
 10
242.5625820534
 20
-311.496249646
 10
245.2390690224
 20
-309.2577376068
 10
247.810875334
 20
-306.7859702409
 10
250.2678681986
 20
-304.0907078088
 10
252.6003469602
 20
-301.1825860143
 10
254.7991027014
 20
-298.0730787516
 10
256.855448045
 20
-294.7744608522
 10
258.7612916605
 20
-291.2997484804
 10
260.5090935604
 20
-287.662658155
 10
262.0919694082
 20
-283.8775396944
 10
263.5036458151
 20
-279.9593315125
 10
264.738579549
 20
-275.9235010148
 10
265.7918979303
 20
-271.7859700919
 10
266.6594137327
 20
-267.5630741418
 10
267.3377294914
 20
-263.2714735941
 10
267.8241629974
 20
-258.9281073437
 10
268.1167920009
 20
-254.5501177796
 10
268.2144691126
 20
-250.1547814012
 10
268.1167920009
 20
-245.7594450228
 10
267.8241629974
 20
-241.3814554587
 10
267.3377294914
 20
-237.0380892083
 10
266.6594137327
 20
-232.7464886606
 10
265.7918979303
 20
-228.5235927105
 10
264.738579549
 20
-224.3860617876
 10
263.5036458151
 20
-220.3502312899
 10
262.0919694082
 20
-216.432023108
 10
260.5090935604
 20
-212.6469046474
 10
258.7612916605
 20
-209.009814322
 10
256.855448045
 20
-205.5351019502
 10
254.7991027014
 20
-202.2364840508
 10
252.6003469602
 20
-199.1269767881
 10
250.2678681986
 20
-196.2188549936
 10
247.810875334
 20
-193.5235925615
 10
245.2390690224
 20
-191.0518251956
 10
242.5625820534
 20
-188.8133131564
 10
239.7919942514
 20
-186.8168891073
 10
236.9382281677
 20
-185.0704283119
 10
234.0125565307
 20
-183.5808262825
 10
231.026512839
 20
-182.3539615274
 10
227.9918988125
 20
-181.3946769238
 10
224.9206726329
 20
-180.7067499161
 10
221.8249638454
 20
-180.2929074169
 10
218.7169914023
 20
-180.1547811032
 10
215.6090189592
 20
-180.2929074169
 10
212.5133176224
 20
-180.7067499161
 10
209.4420914428
 20
-181.3946769238
 10
206.4074699656
 20
-182.3539615274
 10
203.4214337246
 20
-183.5808262825
 10
200.4957620875
 20
-185.0704283119
 10
197.6419960038
 20
-186.8168891073
 10
194.8714007513
 20
-188.8133131564
 10
192.1949212329
 20
-191.0518251956
 10
189.6231074707
 20
-193.5235925615
 10
187.1661146061
 20
-196.2188549936
 10
184.833643295
 20
-199.1269767881
 10
182.6348875539
 20
-202.2364840508
 10
180.5785347597
 20
-205.5351019502
 10
178.6726985947
 20
-209.009814322
 10
176.9248966948
 20
-212.6469046474
 10
175.3420282976
 20
-216.432023108
 10
173.9303407149
 20
-220.3502312899
 10
172.6954069809
 20
-224.3860617876
 10
171.6420997755
 20
-228.5235927105
 10
170.7745727972
 20
-232.7464886606
 10
170.0962570385
 20
-237.0380892083
 10
169.6098235325
 20
-241.3814554587
 10
169.3171908037
 20
-245.7594450228
 10
169.2195211427
 20
-250.1547814012
 10
169.3171908037
 20
-254.5501177796
 10
169.6098235325
 20
-258.9281073437
 10
170.0962570385
 20
-263.2714735941
 10
170.7745727972
 20
-267.5630741418
 10
171.6420997755
 20
-271.7859700919
 10
172.6954069809
 20
-275.9235010148
 10
173.9303407149
 20
-279.9593315125
 10
175.3420282976
 20
-283.8775396944
 10
176.9248966948
 20
-287.662658155
 10
178.6726985947
 20
-291.2997484804
 10
180.5785347597
 20
-294.7744608522
 10
182.6348875539
 20
-298.0730787516
 10
184.833643295
 20
-301.1825860143
 10
187.1661146061
 20
-304.0907078088
 10
189.6231074707
 20
-306.7859702409
 10
192.1949212329
 20
-309.2577376068
 10
194.8714007513
 20
-311.496249646
 10
197.6419960038
 20
-313.4926736951
 10
200.4957620875
 20
-315.2391344905
 10
203.4214337246
 20
-316.7287365199
 10
206.4074699656
 20
-317.955601275
 10
209.4420914428
 20
-318.9148858786
 10
212.5133176224
 20
-319.6028128863
 10
215.6090189592
 20
-320.0166553855
 10
218.7169914023
 20
-320.1547816992
  0
LWPOLYLINE
  5
C2
330
1F
100
AcDbEntity
  8
0
  6
Continuous
 62
     7
370
    25
100
AcDbPolyline
 90
       95
 70
   128
 43
0.0
 10
218.7169914023
 20
-311.8547827602
 10
215.8029352204
 20
-311.7169991732
 10
212.9018877522
 20
-311.3042630852
 10
210.026813008
 20
-310.6184185148
 10
207.1905483381
 20
-309.6625276506
 10
204.4057671801
 20
-308.4408634007
 10
201.6848971025
 20
-306.9588795901
 10
199.0401049034
 20
-305.2231923342
 10
196.4831923024
 20
-303.2415576876
 10
194.0255810396
 20
-301.0228269399
 10
191.6782458202
 20
-298.5769019127
 10
189.4516696112
 20
-295.9147163332
 10
187.3558063881
 20
-293.0481538773
 10
185.4000066296
 20
-289.9900183678
 10
183.5930024163
 20
-286.7539704442
 10
181.942877628
 20
-283.354464233
 10
180.4569934384
 20
-279.8066765666
 10
179.1419883148
 20
-276.1264566929
 10
178.0037333147
 20
-272.3302405924
 10
177.0473171846
 20
-268.4349839241
 10
176.2770016567
 20
-264.4580847249
 10
175.6962400751
 20
-260.417302385
 10
175.3076177911
 20
-256.3306854703
 10
175.1128707902
 20
-252.2164855749
 10
175.1128707902
 20
-248.0930772275
 10
175.3076177911
 20
-243.9788773321
 10
175.6962400751
 20
-239.8922604174
 10
176.2770016567
 20
-235.8514780775
 10
177.0473171846
 20
-231.8745788783
 10
178.0037333147
 20
-227.97932221
 10
179.1419883148
 20
-224.1831061095
 10
180.4569934384
 20
-220.5028862358
 10
181.942877628
 20
-216.9550985694
 10
183.5930024163
 20
-213.5555923582
 10
185.4000066296
 20
-210.3195444346
 10
187.3558063881
 20
-207.2614089251
 10
189.4516696112
 20
-204.3948464692
 10
191.6782458202
 20
-201.7326608897
 10
194.0255810396
 20
-199.2867358625
 10
196.4831923024
 20
-197.0680051148
 10
199.0401049034
 20
-195.0863704682
 10
201.6848971025
 20
-193.3506832123
 10
204.4057671801
 20
-191.8686994017
 10
207.1905483381
 20
-190.6470351518
 10
210.026813008
 20
-189.6911442876
 10
212.9018877522
 20
-189.0052997172
 10
215.8029352204
 20
-188.5925636292
 10
218.7169914023
 20
-188.4547800422
 10
221.6310550348
 20
-188.5925636292
 10
224.532102503
 20
-189.0052997172
 10
227.4071772472
 20
-189.6911442876
 10
230.2434419171
 20
-190.6470351518
 10
233.0282230751
 20
-191.8686994017
 10
235.7490857021
 20
-193.3506832123
 10
238.3938853518
 20
-195.0863704682
 10
240.9507979528
 20
-197.0680051148
 10
243.4084166662
 20
-199.2867358625
 10
245.7557518856
 20
-201.7326608897
 10
247.9823131935
 20
-204.3948464692
 10
250.0781913177
 20
-207.2614089251
 10
252.0339836256
 20
-210.3195444346
 10
253.8409878389
 20
-213.5555923582
 10
255.4911126272
 20
-216.9550985694
 10
256.9769968168
 20
-220.5028862358
 10
258.2919944898
 20
-224.1831061095
 10
259.43024949
 20
-227.97932221
 10
260.38666562
 20
-231.8745788783
 10
261.1569811479
 20
-235.8514780775
 10
261.7377539055
 20
-239.8922604174
 10
262.1263761894
 20
-243.9788773321
 10
262.3211194651
 20
-248.0930772275
 10
262.3211194651
 20
-252.2164855749
 10
262.1263761894
 20
-256.3306854703
 10
261.7377539055
 20
-260.417302385
 10
261.1569811479
 20
-264.4580847249
 10
260.38666562
 20
-268.4349839241
 10
259.43024949
 20
-272.3302405924
 10
258.2919944898
 20
-276.1264566929
 10
256.9769968168
 20
-279.8066765666
 10
255.4911126272
 20
-283.354464233
 10
253.8409878389
 20
-286.7539704442
 10
252.0339836256
 20
-289.9900183678
 10
250.0781913177
 20
-293.0481538773
 10
247.9823131935
 20
-295.9147163332
 10
245.7557518856
 20
-298.5769019127
 10
243.4084166662
 20
-301.0228269399
 10
240.9507979528
 20
-303.2415576876
 10
238.3938853518
 20
-305.2231923342
 10
235.7490857021
 20
-306.9588795901
 10
233.0282230751
 20
-308.4408634007
 10
230.2434419171
 20
-309.6625276506
 10
227.4071772472
 20
-310.6184185148
 10
224.532102503
 20
-311.3042630852
 10
221.6310550348
 20
-311.7169991732
 10
218.7169914023
 20
-311.8547827602
  0
ARC
  5
C3
330
1F
100
AcDbEntity
  8
0
  6
Continuous
 62
     7
370
    25
100
AcDbCircle
 10
113.7169946806
 20
-250.1547814012
 30
0.0
 40
70.00000000000009
100
AcDbArc
 50
90.0
 51
270.0
  0
ARC
  5
C4
330
1F
100
AcDbEntity
  8
0
  6
Continuous
 62
     7
370
    25
100
AcDbCircle
 10
113.7169946806
 20
-250.1547814012
 30
0.0
 40
61.70000000000002
100
AcDbArc
 50
355.4737591789
 51
4.5262408211
  0
LWPOLYLINE
  5
C5
330
1F
100
AcDbEntity
  8
0
  6
Continuous
 62
     1
370
    25
100
AcDbPolyline
 90
       51
 70
   128
 43
0.0
 10
134.219519131
 20
-180.1547811032
 10
131.1115485505
 20
-180.2929074169
 10
128.0158416258
 20
-180.7067499161
 10
124.9446182401
 20
-181.3946769238
 10
121.9099986256
 20
-182.3539615274
 10
118.923959125
 20
-183.5808262825
 10
115.9982842283
 20
-185.0704283119
 10
113.1445202982
 20
-186.8168891073
 10
110.3739296441
 20
-188.8133131564
 10
107.6974466333
 20
-191.0518251956
 10
105.125634268
 20
-193.5235925615
 10
102.6686423348
 20
-196.2188549936
 10
100.3361672984
 20
-199.1269767881
 10
98.1374134199
 20
-202.2364840508
 10
96.0810606257
 20
-205.5351019502
 10
94.1752225981
 20
-209.009814322
 10
92.4274206982
 20
-212.6469046474
 10
90.844552301
 20
-216.432023108
 10
89.4328665809
 20
-220.3502312899
 10
88.197932847
 20
-224.3860617876
 10
87.1446237789
 20
-228.5235927105
 10
86.2770986633
 20
-232.7464886606
 10
85.5987810419
 20
-237.0380892083
 10
85.1123475359
 20
-241.3814554587
 10
84.8197166697
 20
-245.7594450228
 10
84.722045146
 20
-250.1547814012
 10
84.8197166697
 20
-254.5501177796
 10
85.1123475359
 20
-258.9281073437
 10
85.5987810419
 20
-263.2714735941
 10
86.2770986633
 20
-267.5630741418
 10
87.1446237789
 20
-271.7859700919
 10
88.197932847
 20
-275.9235010148
 10
89.4328665809
 20
-279.9593315125
 10
90.844552301
 20
-283.8775396944
 10
92.4274206982
 20
-287.662658155
 10
94.1752225981
 20
-291.2997484804
 10
96.0810606257
 20
-294.7744608522
 10
98.1374134199
 20
-298.0730787516
 10
100.3361672984
 20
-301.1825860143
 10
102.6686423348
 20
-304.0907078088
 10
105.125634268
 20
-306.7859702409
 10
107.6974466333
 20
-309.2577376068
 10
110.3739296441
 20
-311.496249646
 10
113.1445202982
 20
-313.4926736951
 10
115.9982842283
 20
-315.2391344905
 10
118.923959125
 20
-316.7287365199
 10
121.9099986256
 20
-317.955601275
 10
124.9446182401
 20
-318.9148858786
 10
128.0158416258
 20
-319.6028128863
 10
131.1115485505
 20
-320.0166553855
 10
134.219519131
 20
-320.1547816992
  0
ARC
  5
C6
330
1F
100
AcDbEntity
  8
0
  6
Continuous
 62
     1
370
    25
100
AcDbCircle
 10
91.4873269385
 20
-250.1547814012
 30
0.0
 40
86.36397991164169
100
AcDbArc
 50
349.7323433215
 51
10.2676566785
  0
INSERT
  5
D2
330
1F
100
AcDbEntity
  8
FORMAT
 62
     7
100
AcDbBlockReference
  2
SW_CENTERMARKSYMBOL_1
 10
113.7169946806
 20
-250.1547814012
 30
0.0
  0
LINE
  5
D3
330
1F
100
AcDbEntity
  8
0
  6
Continuous
 62
     7
370
    25
100
AcDbLine
 10
356.0002883286
 20
-260.1935710551
 30
0.0
 11
356.0002883286
 21
-354.9164272591
 31
0.0
  0
LINE
  5
D4
330
1F
100
AcDbEntity
  8
0
  6
Continuous
 62
     7
370
    25
100
AcDbLine
 10
496.000286354
 20
-354.9164272591
 30
0.0
 11
496.000286354
 21
-260.1935710551
 31
0.0
  0
LINE
  5
D5
330
1F
100
AcDbEntity
  8
0
  6
Continuous
 62
     7
370
    25
100
AcDbLine
 10
439.6247223719
 20
-72.9197895578
 30
0.0
 11
379.8759827845
 21
-176.4076449496
 31
0.0
  0
LINE
  5
D6
330
1F
100
AcDbEntity
  8
0
  6
Continuous
 62
     7
370
    25
100
AcDbLine
 10
501.1195400387
 20
-246.4076486149
 30
0.0
 11
560.868276992
 21
-142.9197947438
 31
0.0
  0
SPLINE
  5
D7
330
1F
100
AcDbEntity
  8
0
  6
Continuous
 62
     7
370
    25
100
AcDbSpline
210
0.0
220
0.0
230
1.0
 70
     8
 71
     3
 72
    23
 73
    19
 74
     0
 42
0.000000001
 43
0.00000001
 40
0.0
 40
0.0
 40
0.0
 40
0.0
 40
0.0382275804924723
 40
0.103965122629801
 40
0.1697902972633376
 40
0.2357478463799723
 40
0.3018853016243514
 40
0.3682466997367629
 40
0.4348708373560073
 40
0.5017879133029226
 40
0.569017085739847
 40
0.6365621602384703
 40
0.7044067729032476
 40
0.7725113796410287
 40
0.8408085111662724
 40
0.9091790721875265
 40
0.9774795734411188
 40
1.0
 40
1.0
 40
1.0
 40
1.0
 10
379.8759827845031
 20
-176.4076449495958
 30
0.0
 10
379.3072532075086
 20
-177.4051203133586
 30
0.0
 10
377.7605154999766
 20
-180.1178907052548
 30
0.0
 10
375.3661904052041
 20
-184.6200737082211
 30
0.0
 10
372.7396545591805
 20
-189.930355298965
 30
0.0
 10
370.2829496814612
 20
-195.3220475507918
 30
0.0
 10
367.9976009365708
 20
-200.7888489386049
 30
0.0
 10
365.8892874467545
 20
-206.3267315696394
 30
0.0
 10
363.963322455115
 20
-211.9308413229844
 30
0.0
 10
362.2259310224309
 20
-217.5960337276009
 30
0.0
 10
360.6839100037168
 20
-223.3163625892693
 30
0.0
 10
359.3447521890487
 20
-229.0847904791893
 30
0.0
 10
358.2163245511233
 20
-234.8928070409786
 30
0.0
 10
357.3071159542182
 20
-240.7299668231258
 30
0.0
 10
356.6245812009881
 20
-246.5831376870321
 30
0.0
 10
356.1796171096025
 20
-252.4357652256024
 30
0.0
 10
356.0143920008555
 20
-256.9723180464536
 30
0.0
 10
356.0030906659517
 20
-259.5535223084888
 30
0.0
 10
356.0002883285516
 20
-260.1935710551462
 30
0.0
  0
SPLINE
  5
D8
330
1F
100
AcDbEntity
  8
0
  6
Continuous
 62
     7
370
    25
100
AcDbSpline
210
0.0
220
0.0
230
1.0
 70
     8
 71
     3
 72
    21
 73
    17
 74
     0
 42
0.000000001
 43
0.00000001
 40
0.0
 40
0.0
 40
0.0
 40
0.0
 40
0.0217379221903949
 40
0.1060071566281384
 40
0.1874690767802401
 40
0.2668956776687476
 40
0.3449809746365281
 40
0.422326491866068
 40
0.4994283228064353
 40
0.5766708130814382
 40
0.6542732172612321
 40
0.7323783985056694
 40
0.8110718307644571
 40
0.8903449999477594
 40
0.9701160131340656
 40
1.0
 40
1.0
 40
1.0
 40
1.0
 10
495.9999228374538
 20
-260.2399457326425
 30
0.0
 10
495.9998173503175
 20
-260.246735187351
 30
0.0
 10
495.9993029317228
 20
-260.2798446438301
 30
0.0
 10
496.0066063032596
 20
-260.1135932055729
 30
0.0
 10
496.0469221288413
 20
-259.7330414614983
 30
0.0
 10
496.1361251126951
 20
-259.1238429658874
 30
0.0
 10
496.2884682157093
 20
-258.3210886172
 30
0.0
 10
496.51676324339
 20
-257.333685564112
 30
0.0
 10
496.8315318726522
 20
-256.1796280379359
 30
0.0
 10
497.2408287758847
 20
-254.8777387121436
 30
0.0
 10
497.7496007218461
 20
-253.450315682061
 30
0.0
 10
498.3598734460924
 20
-251.9225631294922
 30
0.0
 10
499.0685431498663
 20
-250.3208684365967
 30
0.0
 10
499.8749063556377
 20
-248.6772828816874
 30
0.0
 10
500.5669816065864
 20
-247.3610932199509
 30
0.0
 10
501.0065332118514
 20
-246.6155147900319
 30
0.0
 10
501.1263230471748
 20
-246.4123242743545
 30
0.0
  0
LWPOLYLINE
  5
D9
330
1F
100
AcDbEntity
  8
0
  6
Continuous
 62
     7
370
    25
100
AcDbPolyline
 90
      101
 70
   128
 43
0.0
 10
376.5028124475
 20
-326.3421432237
 10
379.7084546593
 20
-324.6043328084
 10
383.0967916056
 20
-322.9861518983
 10
386.6544531865
 20
-321.4939867733
 10
390.3673896843
 20
-320.1337218893
 10
394.2209524348
 20
-318.9107298039
 10
398.1999363039
 20
-317.8298344898
 10
402.2886336881
 20
-316.8953044918
 10
406.4709102469
 20
-316.1108244143
 10
410.7302602207
 20
-315.4794934001
 10
415.0498749195
 20
-315.0038038416
 10
419.4127059431
 20
-314.6856292148
 10
423.8015336697
 20
-314.526227121
 10
428.1990410129
 20
-314.526227121
 10
432.5878687395
 20
-314.6856292148
 10
436.9506997631
 20
-315.0038038416
 10
441.2703144619
 20
-315.4794934001
 10
445.5296644357
 20
-316.1108244143
 10
449.7119409945
 20
-316.8953044918
 10
453.8006383787
 20
-317.8298344898
 10
457.7796222478
 20
-318.9107298039
 10
461.6331849983
 20
-320.1337218893
 10
465.3461214961
 20
-321.4939867733
 10
468.903783077
 20
-322.9861518983
 10
472.2921200233
 20
-324.6043328084
 10
475.4977622351
 20
-326.3421432237
 10
478.5080643407
 20
-328.1927210819
 10
481.3111396119
 20
-330.1487663654
 10
483.8959254887
 20
-332.2025606798
 10
486.2522286898
 20
-334.3459932957
 10
488.3707426644
 20
-336.5706077193
 10
490.2431111411
 20
-338.8676262136
 10
491.8619399823
 20
-341.2279809719
 10
493.2208465745
 20
-343.6423578378
 10
494.314462463
 20
-346.1012282392
 10
495.1384702298
 20
-348.5948887257
 10
495.6896245678
 20
-351.1134974656
 10
495.9657470117
 20
-353.6471137826
 10
495.9657470117
 20
-356.1857407356
 10
495.6896245678
 20
-358.7193570527
 10
495.1384702298
 20
-361.2379657925
 10
494.314462463
 20
-363.7316262791
 10
493.2208465745
 20
-366.1904966804
 10
491.8619399823
 20
-368.6048735463
 10
490.2431111411
 20
-370.9652283047
 10
488.3707426644
 20
-373.2622467989
 10
486.2522286898
 20
-375.4868612225
 10
483.8959254887
 20
-377.6302938384
 10
481.3111396119
 20
-379.6840881528
 10
478.5080643407
 20
-381.6401334363
 10
475.4977622351
 20
-383.4907112946
 10
472.2921200233
 20
-385.2285217098
 10
468.903783077
 20
-386.8467026199
 10
465.3461214961
 20
-388.3388677449
 10
461.6331849983
 20
-389.6991326289
 10
457.7796222478
 20
-390.9221247143
 10
453.8006383787
 20
-392.0030200284
 10
449.7119409945
 20
-392.9375500264
 10
445.5296644357
 20
-393.722030104
 10
441.2703144619
 20
-394.3533611181
 10
436.9506997631
 20
-394.8290506766
 10
432.5878687395
 20
-395.1472253034
 10
428.1990410129
 20
-395.3066273972
 10
423.8015336697
 20
-395.3066273972
 10
419.4127059431
 20
-395.1472253034
 10
415.0498749195
 20
-394.8290506766
 10
410.7302602207
 20
-394.3533611181
 10
406.4709102469
 20
-393.722030104
 10
402.2886336881
 20
-392.9375500264
 10
398.1999363039
 20
-392.0030200284
 10
394.2209524348
 20
-390.9221247143
 10
390.3673896843
 20
-389.6991326289
 10
386.6544531865
 20
-388.3388677449
 10
383.0967916056
 20
-386.8467026199
 10
379.7084546593
 20
-385.2285217098
 10
376.5028124475
 20
-383.4907112946
 10
373.4925103418
 20
-381.6401334363
 10
370.6894350707
 20
-379.6840881528
 10
368.1046491939
 20
-377.6302938384
 10
365.7483459928
 20
-375.4868612225
 10
363.6298320182
 20
-373.2622467989
 10
361.7574635414
 20
-370.9652283047
 10
360.1386347003
 20
-368.6048735463
 10
358.7797281081
 20
-366.1904966804
 10
357.6861122196
 20
-363.7316262791
 10
356.8621044527
 20
-361.2379657925
 10
356.3109501147
 20
-358.7193570527
 10
356.0348276709
 20
-356.1857407356
 10
356.0348276709
 20
-353.6471137826
 10
356.3109501147
 20
-351.1134974656
 10
356.8621044527
 20
-348.5948887257
 10
357.6861122196
 20
-346.1012282392
 10
358.7797281081
 20
-343.6423578378
 10
360.1386347003
 20
-341.2279809719
 10
361.7574635414
 20
-338.8676262136
 10
363.6298320182
 20
-336.5706077193
 10
365.7483459928
 20
-334.3459932957
 10
368.1046491939
 20
-332.2025606798
 10
370.6894350707
 20
-330.1487663654
 10
373.4925103418
 20
-328.1927210819
 10
376.5028124475
 20
-326.3421432237
  0
LWPOLYLINE
  5
DA
330
1F
100
AcDbEntity
  8
0
  6
Continuous
 62
     7
370
    25
100
AcDbPolyline
 90
       95
 70
   128
 43
0.0
 10
382.3717979811
 20
-329.7302364546
 10
379.5551639371
 20
-331.4687323158
 10
376.9459654862
 20
-333.3119516102
 10
374.5558559027
 20
-335.251661574
 10
372.3955098639
 20
-337.2791998516
 10
370.4745750468
 20
-339.3855085208
 10
368.8016309692
 20
-341.5611821844
 10
367.3841507943
 20
-343.7965052267
 10
366.2284644518
 20
-346.0814913515
 10
365.3397322964
 20
-348.4059352845
 10
364.7219279859
 20
-350.7594591545
 10
364.3778042362
 20
-353.1315474689
 10
364.3089020414
 20
-355.5116087014
 10
364.5155296004
 20
-357.8890117876
 10
364.9967623167
 20
-360.2531378288
 10
365.750450701
 20
-362.5934272329
 10
366.773230908
 20
-364.8994314171
 10
368.0605339559
 20
-367.160848544
 10
369.606609434
 20
-369.3675797872
 10
371.4045544788
 20
-371.5097673475
 10
373.4463341887
 20
-373.5778457763
 10
375.7228336493
 20
-375.5625780915
 10
378.2238852626
 20
-377.4550989269
 10
380.9383164917
 20
-379.2469573013
 10
383.8540064958
 20
-380.9301493129
 10
386.957932557
 20
-382.4971571068
 10
390.2362300088
 20
-383.9409834704
 10
393.6742597358
 20
-385.2551786356
 10
397.2566648096
 20
-386.4338729729
 10
400.967444574
 20
-387.4718045543
 10
404.7900293909
 20
-388.3643349298
 10
408.707343201
 20
-389.107479161
 10
412.7018924282
 20
-389.6979176067
 10
416.7558318332
 20
-390.1330126497
 10
420.8510619789
 20
-390.4108223835
 10
424.969291133
 20
-390.5301059343
 10
429.0921248303
 20
-390.4903295439
 10
433.2011475322
 20
-390.2916711317
 10
437.2780121886
 20
-389.9350202948
 10
441.3045034586
 20
-389.4219661422
 10
445.2626443941
 20
-388.7548026176
 10
449.1347570263
 20
-387.9365087305
 10
452.9035427081
 20
-386.9707386715
 10
456.5521716761
 20
-385.8618066059
 10
460.0643515391
 20
-384.6146653838
 10
463.4243918157
 20
-383.2348844908
 10
466.61728724
 20
-381.7286262867
 10
469.6287767014
 20
-380.1026180636
 10
472.4454107455
 20
-378.3641222024
 10
475.0546091964
 20
-376.520902908
 10
477.4447187799
 20
-374.5811929442
 10
479.6050648187
 20
-372.5536546667
 10
481.5259996358
 20
-370.4473459975
 10
483.1989437134
 20
-368.2716723339
 10
484.6164238883
 20
-366.0363492915
 10
485.7721102308
 20
-363.7513631667
 10
486.6608423861
 20
-361.4269192338
 10
487.2786466967
 20
-359.0733953638
 10
487.6227704464
 20
-356.7013070493
 10
487.6916726412
 20
-354.3212458169
 10
487.4850450822
 20
-351.9438427307
 10
487.0038123659
 20
-349.5797166894
 10
486.2501239816
 20
-347.2394272853
 10
485.2273437746
 20
-344.9334231012
 10
483.9400407267
 20
-342.6720059742
 10
482.3939652486
 20
-340.465274731
 10
480.5960202038
 20
-338.3230871707
 10
478.5542404938
 20
-336.255008742
 10
476.2777410332
 20
-334.2702764267
 10
473.77668942
 20
-332.3777555913
 10
471.0622581908
 20
-330.5858972169
 10
468.1465681868
 20
-328.9027052053
 10
465.0426421255
 20
-327.3356974114
 10
461.7643446738
 20
-325.8918710478
 10
458.3263149467
 20
-324.5776758826
 10
454.743909873
 20
-323.3989815453
 10
451.0331301085
 20
-322.3610499639
 10
447.2105452917
 20
-321.4685195884
 10
443.2932314815
 20
-320.7253753572
 10
439.2986822544
 20
-320.1349369115
 10
435.2447428494
 20
-319.6998418685
 10
431.1495127037
 20
-319.4220321347
 10
427.0312835496
 20
-319.302748584
 10
422.9084498523
 20
-319.3425249743
 10
418.7994271504
 20
-319.5411833865
 10
414.7225624939
 20
-319.8978342234
 10
410.696071224
 20
-320.410888376
 10
406.7379302885
 20
-321.0780519006
 10
402.8658176563
 20
-321.8963457877
 10
399.0970319745
 20
-322.8621158467
 10
395.4484030065
 20
-323.9710479123
 10
391.9362231435
 20
-325.2181891344
 10
388.5761828669
 20
-326.5979700275
 10
385.3832874425
 20
-328.1042282316
 10
382.3717979811
 20
-329.7302364546
  0
LWPOLYLINE
  5
DB
330
1F
100
AcDbEntity
  8
0
  6
Continuous
 62
     7
370
    25
100
AcDbPolyline
 90
      101
 70
   128
 43
0.0
 10
450.749022154
 20
-79.3455157197
 10
453.0443605973
 20
-80.6709927426
 10
455.5259881111
 20
-82.1040226967
 10
458.1841108213
 20
-83.6389257427
 10
461.0082236261
 20
-85.2696601396
 10
463.9871997573
 20
-86.989782703
 10
467.1092697076
 20
-88.7924974747
 10
470.3621213288
 20
-90.6707074398
 10
473.7329077347
 20
-92.6169886691
 10
477.2083368629
 20
-94.6236663691
 10
480.7746820117
 20
-96.6828270468
 10
484.4178766704
 20
-98.7863245991
 10
488.1235408612
 20
-100.9258563542
 10
491.8770496275
 20
-103.0930026172
 10
495.6635804496
 20
-105.2792053768
 10
499.4682080748
 20
-107.4758108921
 10
503.2759018833
 20
-109.6741776725
 10
507.0716470602
 20
-111.8656247691
 10
510.8404445958
 20
-114.0414926053
 10
514.5674377261
 20
-116.1932038182
 10
518.2379224692
 20
-118.3122693332
 10
521.8373871384
 20
-120.3903111762
 10
525.3516486606
 20
-122.41915335
 10
528.7668328201
 20
-124.3907617496
 10
532.0694588816
 20
-126.2973660244
 10
535.2464991883
 20
-128.1314331486
 10
538.2854031991
 20
-129.8857542979
 10
541.1741893551
 20
-131.5533762166
 10
543.9014526532
 20
-133.1277272565
 10
546.4564308299
 20
-134.6025825826
 10
548.8290428858
 20
-135.9721472486
 10
551.0099104885
 20
-137.230995542
 10
552.9904435836
 20
-138.3741690854
 10
554.762829199
 20
-139.3971581926
 10
556.3200498843
 20
-140.2959125116
 10
557.6559785416
 20
-141.0668957762
 10
558.765336278
 20
-141.7070736276
 10
559.6437556263
 20
-142.2138892788
 10
560.2877542032
 20
-142.5853699689
 10
560.6947952952
 20
-142.8200524369
 10
560.8632773221
 20
-142.9169889977
 10
560.7925391052
 20
-142.875799248
 10
560.4828440624
 20
-142.6966609353
 10
559.935427623
 20
-142.3802764943
 10
559.1524445448
 20
-141.9278912895
 10
558.1369899869
 20
-141.341299698
 10
556.8930626316
 20
-140.6227994728
 10
555.4255831235
 20
-139.7752328079
 10
553.7403361174
 20
-138.8019589512
 10
551.8439702788
 20
-137.7067933705
 10
549.7439719416
 20
-136.4940837906
 10
547.4486334983
 20
-135.1686067678
 10
544.9670112529
 20
-133.7355737723
 10
542.3088885426
 20
-132.2006707263
 10
539.4847704695
 20
-130.5699393707
 10
536.5057996066
 20
-128.849813766
 10
533.3837296564
 20
-127.0470989943
 10
530.1308780351
 20
-125.1688768618
 10
526.7600863609
 20
-123.2226108412
 10
523.284662501
 20
-121.2159300999
 10
519.7183120839
 20
-119.1567724636
 10
516.0751174252
 20
-117.0532749113
 10
512.3694585028
 20
-114.9137279474
 10
508.6159497365
 20
-112.7465816844
 10
504.829413646
 20
-110.5604063009
 10
501.0247912891
 20
-108.3637734095
 10
497.2170974807
 20
-106.1654187965
 10
493.4213575721
 20
-103.973980826
 10
489.652552134
 20
-101.798093217
 10
485.9255590037
 20
-99.6463941715
 10
482.2550821631
 20
-97.5273362619
 10
478.6556095914
 20
-95.4492746461
 10
475.1413480692
 20
-93.4204568071
 10
471.7261639097
 20
-91.4488484075
 10
468.423535214
 20
-89.5422456534
 10
465.2465001756
 20
-87.708151153
 10
462.2075908965
 20
-85.9538573799
 10
459.3188073747
 20
-84.2862339404
 10
456.5915440766
 20
-82.7118829006
 10
454.0365658999
 20
-81.2370032397
 10
451.6639617465
 20
-79.8674583464
 10
449.4830862412
 20
-78.6086024477
 10
447.5025531462
 20
-77.4654167369
 10
445.7301754333
 20
-76.4424474024
 10
444.1729494796
 20
-75.5436839574
 10
442.8370208224
 20
-74.7726885254
 10
441.7276578176
 20
-74.1325380502
 10
440.8492437377
 20
-73.6256950228
 10
440.2052451608
 20
-73.2542143328
 10
439.7981988004
 20
-73.0195470734
 10
439.6297167735
 20
-72.9226105127
 10
439.7004602587
 20
-72.963797221
 10
440.0101500332
 20
-73.1429385751
 10
440.5575717409
 20
-73.4593078073
 10
441.3405548191
 20
-73.9117051795
 10
442.356009377
 20
-74.498296771
 10
443.599931464
 20
-75.2168000375
 10
445.0674162405
 20
-76.0643636611
 10
446.7526632466
 20
-77.0376375178
 10
448.6490238168
 20
-78.1328061398
 10
450.749022154
 20
-79.3455157197
  0
LWPOLYLINE
  5
DC
330
1F
100
AcDbEntity
  8
0
  6
Continuous
 62
     7
370
    25
100
AcDbPolyline
 90
       95
 70
   128
 43
0.0
 10
456.6180076876
 20
-82.7336089507
 10
454.6548865093
 20
-81.5999243543
 10
452.8953846587
 20
-80.5838005874
 10
451.3473651572
 20
-79.6897785959
 10
450.017740088
 20
-78.921832093
 10
448.9124495225
 20
-78.2833858069
 10
448.0364246421
 20
-77.777312432
 10
447.3935903719
 20
-77.4058489754
 10
446.9868074293
 20
-77.170672795
 10
446.8178933972
 20
-77.0728529258
 10
446.8876069188
 20
-77.1127740262
 10
447.1956292586
 20
-77.2903082387
 10
447.7405959124
 20
-77.6046205028
 10
448.5200649971
 20
-78.0543328089
 10
449.5305514952
 20
-78.6374344579
 10
450.7675509623
 20
-79.3513200784
 10
452.2255368928
 20
-80.1928002636
 10
453.8979962816
 20
-81.1581221002
 10
455.7774585998
 20
-82.2429737227
 10
457.8555326732
 20
-83.4424934336
 10
460.1229297316
 20
-84.7513195055
 10
462.5695338728
 20
-86.1636399873
 10
465.184410953
 20
-87.6731248241
 10
467.9558826733
 20
-89.2730264241
 10
470.8715726773
 20
-90.9562184357
 10
473.9184582475
 20
-92.715183004
 10
477.0829302323
 20
-94.5420453662
 10
480.3508552787
 20
-96.4286523648
 10
483.707643004
 20
-98.366599059
 10
487.1382937399
 20
-100.3471984898
 10
490.6274917166
 20
-102.3616084859
 10
494.1596491859
 20
-104.4008480076
 10
497.7189926894
 20
-106.4558104522
 10
501.2896210117
 20
-108.5173092788
 10
504.8555973756
 20
-110.5761434048
 10
508.400985004
 20
-112.6231177357
 10
511.9099498527
 20
-114.6490903136
 10
515.3668264651
 20
-116.6449860035
 10
518.7561732894
 20
-118.6019379361
 10
522.0628464361
 20
-120.5111475857
 10
525.2720839717
 20
-122.3641463663
 10
528.3695506991
 20
-124.1526389781
 10
531.3414171839
 20
-125.8686159577
 10
534.1744019002
 20
-127.5044388473
 10
536.8558607937
 20
-129.0527824057
 10
539.3738109883
 20
-130.5067334679
 10
541.7170098123
 20
-131.8598183252
 10
543.874986408
 20
-133.1059905597
 10
545.8381128546
 20
-134.2396599473
 10
547.5976147052
 20
-135.2557837142
 10
549.1456342067
 20
-136.1498178731
 10
550.4752592759
 20
-136.9177765435
 10
551.5805498414
 20
-137.5562106621
 10
552.4565694535
 20
-138.0622870784
 10
553.0994089921
 20
-138.4337474936
 10
553.5061919347
 20
-138.6689115066
 10
553.6751112351
 20
-138.7667526693
 10
553.6053977135
 20
-138.7268194014
 10
553.297364837
 20
-138.5493034391
 10
552.7524087199
 20
-138.2349729249
 10
551.9729343669
 20
-137.7852514927
 10
550.9624478688
 20
-137.2021498437
 10
549.7254484017
 20
-136.4882642232
 10
548.2674624711
 20
-135.646784038
 10
546.594997814
 20
-134.6814774102
 10
544.7155354958
 20
-133.5966379551
 10
542.6374614224
 20
-132.3971182442
 10
540.370064364
 20
-131.0882800049
 10
537.9234681253
 20
-129.675954961
 10
535.3085910451
 20
-128.1664701242
 10
532.5371166907
 20
-126.5665578775
 10
529.6214266867
 20
-124.8833658659
 10
526.5745437507
 20
-123.1244119444
 10
523.4100717659
 20
-121.2975495821
 10
520.1421388169
 20
-119.4109471455
 10
516.7853510916
 20
-117.4730126187
 10
513.3547003557
 20
-115.492413188
 10
509.865502379
 20
-113.4779910245
 10
506.3333501781
 20
-111.438736294
 10
502.7740066745
 20
-109.3837738494
 10
499.2033783522
 20
-107.3222750228
 10
495.6374019883
 20
-105.2634408968
 10
492.0920196283
 20
-103.2164756919
 10
488.5830442429
 20
-101.1905213642
 10
485.1261781673
 20
-99.1946074241
 10
481.736831343
 20
-97.237667659
 10
478.4301529278
 20
-95.3284367159
 10
475.2209153923
 20
-93.4754501027
 10
472.1234433964
 20
-91.6869605322
 10
469.1515821801
 20
-89.9709805113
 10
466.3185974637
 20
-88.3351697891
 10
463.6371385703
 20
-86.7868140633
 10
461.1191883757
 20
-85.3328508337
 10
458.7759895517
 20
-83.9797659764
 10
456.6180076876
 20
-82.7336089507
  0
LWPOLYLINE
  5
DD
330
1F
100
AcDbEntity
  8
0
  6
Continuous
 62
     1
370
    25
100
AcDbPolyline
 90
       14
 70
   128
 43
0.0
 10
475.4977622351
 20
-231.6192870197
 10
478.5080643407
 20
-233.4698648779
 10
481.3111396119
 20
-235.4259101614
 10
483.8959254887
 20
-237.4797044758
 10
486.2522286898
 20
-239.6231370917
 10
488.3707426644
 20
-241.8477515154
 10
490.2431111411
 20
-244.1447700096
 10
491.8619399823
 20
-246.5051247679
 10
493.2208465745
 20
-248.9195016338
 10
494.314462463
 20
-251.3783720352
 10
495.1384702298
 20
-253.8720325218
 10
495.6896245678
 20
-256.3906412616
 10
495.9657470117
 20
-258.9242575786
 10
496.000286354
 20
-260.1935710551
  0
LWPOLYLINE
  5
DE
330
1F
100
AcDbEntity
  8
0
  6
Continuous
 62
     1
370
    25
100
AcDbPolyline
 90
       39
 70
   128
 43
0.0
 10
356.0002883286
 20
-260.1935710551
 10
356.0348276709
 20
-258.9242575786
 10
356.3109501147
 20
-256.3906412616
 10
356.8621044527
 20
-253.8720325218
 10
357.6861122196
 20
-251.3783720352
 10
358.7797281081
 20
-248.9195016338
 10
360.1386347003
 20
-246.5051247679
 10
361.7574635414
 20
-244.1447700096
 10
363.6298320182
 20
-241.8477515154
 10
365.7483459928
 20
-239.6231370917
 10
368.1046491939
 20
-237.4797044758
 10
370.6894350707
 20
-235.4259101614
 10
373.4925103418
 20
-233.4698648779
 10
376.5028124475
 20
-231.6192870197
 10
379.7084546593
 20
-229.8814766044
 10
383.0967916056
 20
-228.2632956943
 10
386.6544531865
 20
-226.7711305693
 10
390.3673896843
 20
-225.4108656853
 10
394.2209524348
 20
-224.1878735999
 10
398.1999363039
 20
-223.1069782858
 10
402.2886336881
 20
-222.1724482878
 10
406.4709102469
 20
-221.3879682103
 10
410.7302602207
 20
-220.7566371961
 10
415.0498749195
 20
-220.2809476377
 10
419.4127059431
 20
-219.9627730109
 10
423.8015336697
 20
-219.803370917
 10
428.1990410129
 20
-219.803370917
 10
432.5878687395
 20
-219.9627730109
 10
436.9506997631
 20
-220.2809476377
 10
441.2703144619
 20
-220.7566371961
 10
445.5296644357
 20
-221.3879682103
 10
449.7119409945
 20
-222.1724482878
 10
453.8006383787
 20
-223.1069782858
 10
457.7796222478
 20
-224.1878735999
 10
461.6331849983
 20
-225.4108656853
 10
465.3461214961
 20
-226.7711305693
 10
468.903783077
 20
-228.2632956943
 10
472.2921200233
 20
-229.8814766044
 10
475.4977622351
 20
-231.6192870197
  0
LWPOLYLINE
  5
DF
330
1F
100
AcDbEntity
  8
0
  6
Continuous
 62
     1
370
    25
100
AcDbPolyline
 90
       17
 70
   128
 43
0.0
 10
475.4977622351
 20
-231.6192870197
 10
478.5366715142
 20
-233.3735929602
 10
481.4254524018
 20
-235.0412179203
 10
484.1527156999
 20
-236.6155689602
 10
486.7076938766
 20
-238.0904364537
 10
489.0803006641
 20
-239.4599980774
 10
491.2611735353
 20
-240.7188494131
 10
493.2417066304
 20
-241.8620229565
 10
495.0140869774
 20
-242.8850090214
 10
496.5713129311
 20
-243.7837663827
 10
497.9072415883
 20
-244.5547496473
 10
499.016604593
 20
-245.1949122899
 10
499.8950160388
 20
-245.7017446706
 10
500.5390172499
 20
-246.07322384
 10
500.9460609761
 20
-246.3078926199
 10
501.114543003
 20
-246.4048291807
 10
501.1195400387
 20
-246.4076486149
  0
LWPOLYLINE
  5
E0
330
1F
100
AcDbEntity
  8
0
  6
Continuous
 62
     1
370
    25
100
AcDbPolyline
 90
       36
 70
   128
 43
0.0
 10
379.8759827845
 20
-176.4076449496
 10
379.9517229762
 20
-176.4516391148
 10
380.2614152202
 20
-176.6307790432
 10
380.8088336764
 20
-176.9471623199
 10
381.5918152317
 20
-177.3995484039
 10
382.6072720945
 20
-177.9861508322
 10
383.8511964863
 20
-178.7046527681
 10
385.3186799458
 20
-179.5522049847
 10
387.0039249762
 20
-180.5254921492
 10
388.9002894977
 20
-181.6206463229
 10
391.0002865178
 20
-182.8333688305
 10
393.2956249612
 20
-184.1588458533
 10
395.7772511578
 20
-185.5918644004
 10
398.4353712339
 20
-187.1267811345
 10
401.259489307
 20
-188.7575124901
 10
404.238462804
 20
-190.4776244067
 10
407.3605327543
 20
-192.2803513458
 10
410.6133843756
 20
-194.1585613109
 10
413.9841734156
 20
-196.1048410196
 10
417.4595999097
 20
-198.1115202402
 10
421.0259476926
 20
-200.1706672298
 10
424.6691423513
 20
-202.2741647821
 10
428.3748039079
 20
-204.4137102253
 10
432.12831004
 20
-206.580858009
 10
435.9148487647
 20
-208.7670440392
 10
439.7194711216
 20
-210.9636647632
 10
443.52716493
 20
-213.1620315436
 10
447.3229048386
 20
-215.3534755978
 10
451.0917076425
 20
-217.5293464764
 10
454.8187007728
 20
-219.6810576893
 10
458.4891802476
 20
-221.800120162
 10
462.0886501851
 20
-223.8781650473
 10
465.6029117073
 20
-225.9069950537
 10
469.0180958668
 20
-227.8786034533
 10
472.3207271967
 20
-229.7852046867
 10
475.4977622351
 20
-231.6192870197
  0
ENDSEC
  0
SECTION
  2
OBJECTS
  0
DICTIONARY
  5
C
330
0
100
AcDbDictionary
281
     1
  3
ACAD_GROUP
350
D
  3
ACAD_LAYOUT
350
1A
  3
ACAD_MLINESTYLE
350
17
  3
ACAD_PLOTSETTINGS
350
19
  3
ACAD_PLOTSTYLENAME
350
E
  3
ACAD_SCALELIST
350
47
  0
DICTIONARY
  5
D
102
{ACAD_REACTORS
330
C
102
}
330
C
100
AcDbDictionary
281
     1
  0
DICTIONARY
  5
1A
102
{ACAD_REACTORS
330
C
102
}
330
C
100
AcDbDictionary
281
     1
  3
Layout1
350
1E
  3
Layout2
350
26
  3
Model
350
22
  0
DICTIONARY
  5
17
102
{ACAD_REACTORS
330
C
102
}
330
C
100
AcDbDictionary
281
     1
  3
Standard
350
18
  0
DICTIONARY
  5
19
102
{ACAD_REACTORS
330
C
102
}
330
C
100
AcDbDictionary
281
     1
  0
ACDBDICTIONARYWDFLT
  5
E
102
{ACAD_REACTORS
330
C
102
}
330
C
100
AcDbDictionary
281
     1
  3
Normal
350
F
100
AcDbDictionaryWithDefault
340
F
  0
DICTIONARY
  5
47
102
{ACAD_REACTORS
330
C
102
}
330
C
100
AcDbDictionary
281
     1
  3
A0
350
48
  3
A1
350
49
  3
A2
350
4A
  3
A3
350
4B
  3
A4
350
4C
  3
A5
350
4D
  3
A6
350
4E
  3
A7
350
4F
  3
A8
350
50
  3
A9
350
51
  3
B0
350
52
  3
B1
350
53
  3
B2
350
54
  3
B3
350
55
  3
B4
350
56
  3
B5
350
57
  3
B6
350
58
  3
B7
350
59
  3
B8
350
5A
  3
B9
350
5B
  3
C0
350
5C
  3
C1
350
5D
  3
C2
350
5E
  3
C3
350
5F
  3
C4
350
60
  3
C5
350
61
  3
C6
350
62
  3
C7
350
63
  3
C8
350
64
  3
C9
350
65
  3
D0
350
66
  3
D1
350
67
  3
D2
350
68
  0
LAYOUT
  5
1E
102
{ACAD_REACTORS
330
1A
102
}
330
1A
100
AcDbPlotSettings
  1

  2
none_device
  4

  6

 40
0.0
 41
0.0
 42
0.0
 43
0.0
 44
0.0
 45
0.0
 46
0.0
 47
0.0
 48
0.0
 49
0.0
140
0.0
141
0.0
142
1.0
143
1.0
 70
   688
 72
     1
 73
     0
 74
     5
  7

 75
    16
147
1.0
148
0.0
149
0.0
100
AcDbLayout
  1
Layout1
 70
     1
 71
     1
 10
0.0
 20
0.0
 11
420.0
 21
297.0
 12
0.0
 22
0.0
 32
0.0
 14
1.0000000000E+20
 24
1.0000000000E+20
 34
1.0000000000E+20
 15
-1.0000000000E+20
 25
-1.0000000000E+20
 35
-1.0000000000E+20
146
0.0
 13
0.0
 23
0.0
 33
0.0
 16
1.0
 26
0.0
 36
0.0
 17
0.0
 27
1.0
 37
0.0
 76
     0
330
1B
  0
LAYOUT
  5
26
102
{ACAD_REACTORS
330
1A
102
}
330
1A
100
AcDbPlotSettings
  1

  2
none_device
  4

  6

 40
0.0
 41
0.0
 42
0.0
 43
0.0
 44
0.0
 45
0.0
 46
0.0
 47
0.0
 48
0.0
 49
0.0
140
0.0
141
0.0
142
1.0
143
1.0
 70
   688
 72
     1
 73
     0
 74
     5
  7

 75
    16
147
1.0
148
0.0
149
0.0
100
AcDbLayout
  1
Layout2
 70
     1
 71
     2
 10
0.0
 20
0.0
 11
0.0
 21
0.0
 12
0.0
 22
0.0
 32
0.0
 14
0.0
 24
0.0
 34
0.0
 15
0.0
 25
0.0
 35
0.0
146
0.0
 13
0.0
 23
0.0
 33
0.0
 16
1.0
 26
0.0
 36
0.0
 17
0.0
 27
1.0
 37
0.0
 76
     0
330
23
  0
LAYOUT
  5
22
102
{ACAD_REACTORS
330
1A
102
}
330
1A
100
AcDbPlotSettings
  1

  2
none_device
  4
Letter_(8.50_x_11.00_Inches)
  6

 40
6.35
 41
6.35
 42
6.35000508
 43
6.35000508
 44
215.9
 45
279.4
 46
0.0
 47
0.0
 48
0.0
 49
0.0
140
0.0
141
0.0
142
1.0
143
1.0
 70
  1712
 72
     1
 73
     0
 74
     0
  7

 75
     0
147
1.0
148
0.0
149
0.0
100
AcDbLayout
  1
Model
 70
     1
 71
     0
 10
0.0
 20
0.0
 11
279.4
 21
215.9
 12
0.0
 22
0.0
 32
0.0
 14
0.0
 24
0.0
 34
0.0
 15
279.4
 25
215.9
 35
0.0
146
0.0
 13
0.0
 23
0.0
 33
0.0
 16
1.0
 26
0.0
 36
0.0
 17
0.0
 27
1.0
 37
0.0
 76
     0
330
1F
331
29
  0
MLINESTYLE
  5
18
102
{ACAD_REACTORS
330
17
102
}
330
17
100
AcDbMlineStyle
  2
Standard
 70
     0
  3

 62
   256
 51
90.0
 52
90.0
 71
     2
 49
0.5
 62
   256
  6
BYLAYER
 49
-0.5
 62
   256
  6
BYLAYER
  0
ACDBPLACEHOLDER
  5
F
102
{ACAD_REACTORS
330
E
102
}
330
E
  0
SCALE
  5
48
102
{ACAD_REACTORS
330
47
102
}
330
47
100
AcDbScale
 70
     0
300
1:1
140
1.0
141
1.0
290
     1
  0
SCALE
  5
49
102
{ACAD_REACTORS
330
47
102
}
330
47
100
AcDbScale
 70
     0
300
1:2
140
1.0
141
2.0
290
     0
  0
SCALE
  5
4A
102
{ACAD_REACTORS
330
47
102
}
330
47
100
AcDbScale
 70
     0
300
1:4
140
1.0
141
4.0
290
     0
  0
SCALE
  5
4B
102
{ACAD_REACTORS
330
47
102
}
330
47
100
AcDbScale
 70
     0
300
1:5
140
1.0
141
5.0
290
     0
  0
SCALE
  5
4C
102
{ACAD_REACTORS
330
47
102
}
330
47
100
AcDbScale
 70
     0
300
1:8
140
1.0
141
8.0
290
     0
  0
SCALE
  5
4D
102
{ACAD_REACTORS
330
47
102
}
330
47
100
AcDbScale
 70
     0
300
1:10
140
1.0
141
10.0
290
     0
  0
SCALE
  5
4E
102
{ACAD_REACTORS
330
47
102
}
330
47
100
AcDbScale
 70
     0
300
1:16
140
1.0
141
16.0
290
     0
  0
SCALE
  5
4F
102
{ACAD_REACTORS
330
47
102
}
330
47
100
AcDbScale
 70
     0
300
1:20
140
1.0
141
20.0
290
     0
  0
SCALE
  5
50
102
{ACAD_REACTORS
330
47
102
}
330
47
100
AcDbScale
 70
     0
300
1:30
140
1.0
141
30.0
290
     0
  0
SCALE
  5
51
102
{ACAD_REACTORS
330
47
102
}
330
47
100
AcDbScale
 70
     0
300
1:40
140
1.0
141
40.0
290
     0
  0
SCALE
  5
52
102
{ACAD_REACTORS
330
47
102
}
330
47
100
AcDbScale
 70
     0
300
1:50
140
1.0
141
50.0
290
     0
  0
SCALE
  5
53
102
{ACAD_REACTORS
330
47
102
}
330
47
100
AcDbScale
 70
     0
300
1:100
140
1.0
141
100.0
290
     0
  0
SCALE
  5
54
102
{ACAD_REACTORS
330
47
102
}
330
47
100
AcDbScale
 70
     0
300
2:1
140
2.0
141
1.0
290
     0
  0
SCALE
  5
55
102
{ACAD_REACTORS
330
47
102
}
330
47
100
AcDbScale
 70
     0
300
4:1
140
4.0
141
1.0
290
     0
  0
SCALE
  5
56
102
{ACAD_REACTORS
330
47
102
}
330
47
100
AcDbScale
 70
     0
300
8:1
140
8.0
141
1.0
290
     0
  0
SCALE
  5
57
102
{ACAD_REACTORS
330
47
102
}
330
47
100
AcDbScale
 70
     0
300
10:1
140
10.0
141
1.0
290
     0
  0
SCALE
  5
58
102
{ACAD_REACTORS
330
47
102
}
330
47
100
AcDbScale
 70
     0
300
100:1
140
100.0
141
1.0
290
     0
  0
SCALE
  5
59
102
{ACAD_REACTORS
330
47
102
}
330
47
100
AcDbScale
 70
     0
300
1/128" = 1'-0"
140
0.0078125
141
12.0
290
     0
  0
SCALE
  5
5A
102
{ACAD_REACTORS
330
47
102
}
330
47
100
AcDbScale
 70
     0
300
1/64" = 1'-0"
140
0.015625
141
12.0
290
     0
  0
SCALE
  5
5B
102
{ACAD_REACTORS
330
47
102
}
330
47
100
AcDbScale
 70
     0
300
1/32" = 1'-0"
140
0.03125
141
12.0
290
     0
  0
SCALE
  5
5C
102
{ACAD_REACTORS
330
47
102
}
330
47
100
AcDbScale
 70
     0
300
1/16" = 1'-0"
140
0.0625
141
12.0
290
     0
  0
SCALE
  5
5D
102
{ACAD_REACTORS
330
47
102
}
330
47
100
AcDbScale
 70
     0
300
3/32" = 1'-0"
140
0.09375
141
12.0
290
     0
  0
SCALE
  5
5E
102
{ACAD_REACTORS
330
47
102
}
330
47
100
AcDbScale
 70
     0
300
1/8" = 1'-0"
140
0.125
141
12.0
290
     0
  0
SCALE
  5
5F
102
{ACAD_REACTORS
330
47
102
}
330
47
100
AcDbScale
 70
     0
300
3/16" = 1'-0"
140
0.1875
141
12.0
290
     0
  0
SCALE
  5
60
102
{ACAD_REACTORS
330
47
102
}
330
47
100
AcDbScale
 70
     0
300
1/4" = 1'-0"
140
0.25
141
12.0
290
     0
  0
SCALE
  5
61
102
{ACAD_REACTORS
330
47
102
}
330
47
100
AcDbScale
 70
     0
300
3/8" = 1'-0"
140
0.375
141
12.0
290
     0
  0
SCALE
  5
62
102
{ACAD_REACTORS
330
47
102
}
330
47
100
AcDbScale
 70
     0
300
1/2" = 1'-0"
140
0.5
141
12.0
290
     0
  0
SCALE
  5
63
102
{ACAD_REACTORS
330
47
102
}
330
47
100
AcDbScale
 70
     0
300
3/4" = 1'-0"
140
0.75
141
12.0
290
     0
  0
SCALE
  5
64
102
{ACAD_REACTORS
330
47
102
}
330
47
100
AcDbScale
 70
     0
300
1" = 1'-0"
140
1.0
141
12.0
290
     0
  0
SCALE
  5
65
102
{ACAD_REACTORS
330
47
102
}
330
47
100
AcDbScale
 70
     0
300
1-1/2" = 1'-0"
140
1.5
141
12.0
290
     0
  0
SCALE
  5
66
102
{ACAD_REACTORS
330
47
102
}
330
47
100
AcDbScale
 70
     0
300
3" = 1'-0"
140
3.0
141
12.0
290
     0
  0
SCALE
  5
67
102
{ACAD_REACTORS
330
47
102
}
330
47
100
AcDbScale
 70
     0
300
6" = 1'-0"
140
6.0
141
12.0
290
     0
  0
SCALE
  5
68
102
{ACAD_REACTORS
330
47
102
}
330
47
100
AcDbScale
 70
     0
300
1'-0" = 1'-0"
140
12.0
141
12.0
290
     0
  0
ENDSEC
  0
EOF
